» » »

Neck Deep - Damsel In Distress Tabs

Artists:  A B C D E F G H I J K L M N O P Q R S T U V W X Y Z # 

Damsel In Distress Tabs

(ver. 1) Click to play this song!
Neck Deep
 Rating:
3.8/5 (23 votes)

 Damsel In Distress  lessons Tabs too difficult? Try these video lessons and learn fast
 
                Intro
e|---------------------------------------------------------------------------|
B|---------------------------------------------------------------------------|
G|---------------------------------------------------------------------------|
D|-9-9-9-5-5-5-7-7-7-5-5-5-5-5-5-5----9-9-9-5-5-5-7-7-7-12-12-12-12-12-12-12-|
A|-7-7-7-3-3-3-5-5-5-3-3-3-3-3-3-3----7-7-7-3-3-3-5-5-5-10-10-10-10-10-10-10-|
E|---------------------------------------------------------------------------|

e|---------------------------------------------------------------------------|
B|---------------------------------------------------------------------------|
G|---------------------------------------------------------------------------|
D|-9-9-9-5-5-5-7-7-7-5-5-5-5-5-5-5----9-9-9-5-5-5-7-7-7-4-4-4-4-5-5-5--------|
A|-7-7-7-3-3-3-5-5-5-3-3-3-3-3-3-3----7-7-7-3-3-3-5-5-5-2-2-2-2-3-3-3--------|
E|---------------------------------------------------------------------------|

Verse
The verses are just a C, G, A, F and back to G power chords, but because it's pretty difficult to hear the 
strumming pattern I made a chord diagram.

C
We'll stay up late
               G
I'll end up sleeping on the floor,
    A
The people here are nothing new
      F
I'll see how I'm feeling...
      G
Nah, f**k this I'm leaving
C
Conversation is wearing thin,
   G
I don't even know whose house this is, 
   A
I kinda wish I just stayed home, 
     F               G
But Friday night is boring on my own

Bridge (x2)
e|---------------------------------------------------------------------------|
B|---------------------------------------------------------------------------|
G|---------------------------------------------------------------------------|
D|-5--5-----5\7-x-5\7-5-5-----7\9--9\10/9--5-5-----5\7-x-5\7-5-5-----3-3-3---|
A|-3--3-x6--5\7-x-5\7-5-5-x6--5\7--7\8-/7--3-3-x6--5\7-x-5\7-5-5-x6--3-3-3---|
E|-----pm-------------3-3-pm------------------pm-------------3-3-pm--1-1-1---|

Verse 2 (2x)
e|---------------------------------------------------------------------------|
B|---------------------------------------------------------------------------|
G|---------------------------------------------------------------------------|
D|-5-5--5-------5-5----5--------3-3----3-------------------------------------|
A|-3-3--3---x4--5-5----5----x2--3-3----3----x2-------------------------------|
E|---pm-pm------3-3-pm-3-pm-----1-1-pm-1-pm----------------------------------|

Chorus intro
e|---------------------------------------------------------------------------|
B|---------------------------------------------------------------------------|
G|---------------------------------------------------------------------------|
D|-5-5-5-5---10-10-10-9-7-9-5------------------------------------------------|
A|-3-3-3-3---8--8--8--7-5-7-3------------------------------------------------|
E|---------------------------------------------------------------------------|

Chorus

C
She's a witch, she's a mess
                  G
She's a waste of time, 
             F
Damsel in distress on a steep decline,
C                                          G      F~
When all she wants is someone to keep her warm

Verse 3
e|---------------------------------------------------------------------------|
B|---------------------------------------------------------------------------|
G|---------------------------------------------------------------------------|
D|-5-5--5-------5-5----5--------3-3----3-------------------------------------|
A|-3-3--3---x4--5-5----5----x2--3-3----3----x2-------------------------------|
E|---pm-pm------3-3-pm-3-pm-----1-1-pm-1-pm----------------------------------|

C                                          G
Now you're at home I guess you're alone again, 
       A
It's 5am as she stumbles to bed
                           F
Plays out thoughts in her head,
                              G
Falls asleep then wakes up wishing she was 
C
Dead and disgusted with those who she's trusted, 
  G
To just be f**ked over and left in the dust, 
           A
So she'll cling to her bottle.
                            F                     G
And hope that tomorrow she won't sit and wallow again


Chorus 2
C
She's a witch, she's a mess
                  G
She's a waste of time, 
             F
Damsel in distress on a steep decline,
C                                          G      F
When all she wants is someone to keep her warm
C                                      G
She's 21 next year but she's lost her mind, 
                        F
She f**ks it up almost every time she tries, 
C                                           G     F
She grabbed my hand as I walked her to her door

Bridge 2
e|----------------------------------------------5----------------------------|
B|---------------------------------5--------3-5---(5x)---15b17-(x8)-13~------|
G|---------------------5-------5-7----(x5)-----------------------------------|
D|-555~---5-5-7----5-7---(x10)-----------------------------------------------|
A|-333~---3-3-5--------------------------------------------------------------|
E|---------------------------------------------------------------------------|

Bridge 3 (x2)
e|---------------------------------------------------------------------------|
B|---------------------------------------------------------------------------|
G|---------------------------------------------------------------------------|
D|-5------7------x-7---9------7------5---------------------------------------|
A|-3-(x8)-5-(x3)-x-5---7-(x8)-5-(x3)-3---------------------------------------|
E|---------------------------------------------------------------------------|

Chorus 3
C
She's a witch, she's a mess
                  G
She's a waste of time, 
             F
Damsel in distress on a steep decline,
C                                          G      F
When all she wants is someone to keep her warm
C                                      G
She's 21 next year but she's lost her mind, 
                        F
She f**ks it up almost every time she tries, 
C                                           G     F~
She grabbed my hand as I walked her to her door            
Submit corrections


        Damsel In Distress  lessons Hard to play? Try these video lessons and learn fast Damsel In Distress  lessons
        
↑ Back to top | Tablatures and chords for acoustic guitar and electric guitar, ukulele, drums are parodies/interpretations of the original songs. You may use it for private study, scholarship, research or language learning purposes only