» » »

Neck Deep - Crushing Grief Tabs

Artists:  A B C D E F G H I J K L M N O P Q R S T U V W X Y Z # 

Crushing Grief Tabs

(ver. 1) Click to play this song!
Neck Deep
 Rating:
3.2/5 (29 votes)

 Crushing Grief  lessons Tabs too difficult? Try these video lessons and learn fast
 
                Rhythm Guitar:


Intro
D|---------------------------------------------------------------------------|
A|---------------------------------------------------------------------------|
F|---------------------------------------------------------------------------|
C|--7-7-7--7--4--4-4-4-4-4-4-4--2-2-2-2-2-2-2-2-2-2-2-2-2-2-2-2--------------| x4
G|--7-7-7--7--4--4-4-4-4-4-4-4--2-2-2-2-2-2-2-2-2-2-2-2-2-2-2-2--------------|
C|--7-7-7--7--4--4-4-4-4-4-4-4--2-2-2-2-2-2-2-2-2-2-2-2-2-2-2-2--------------|


Verse 1
D|----------------------------------------------------------------------------------------------------------|
A|----------------------------------------------------------------------------------------------------------|
F|-------------------------------------------------------------------------------4-4-4--4-4-4---------------|
C|--7-7-7--7-7-7--7-7-7--4-4-4--4-4-4--4-4-4--4-4-4--2-2-2--2-2-2--2-2-2--2-2-2--4-4-4--4-4-4--4-4-4--4-4-4-|
G|--7-7-7--7-7-7--7-7-7--4-4-4--4-4-4--4-4-4--4-4-4--2-2-2--2-2-2--2-2-2--2-2-2--2-2-2--2-2-2--4-4-4--4-4-4-|
C|--7-7-7--7-7-7--7-7-7--4-4-4--4-4-4--4-4-4--4-4-4--2-2-2--2-2-2--2-2-2--2-2-2----------------4-4-4--4-4-4-|
P.M.* *    * *    * *    * *    * *    * *    * *    * *    * *    * *    * *    * *    * *    * *    * *

Chorus
D|---------------------------------------------------------------------------|
A|---------------------------------------------------------------------------|
F|---------------------------------------------------------------------------|
C|------------4--4-4-4-4-4-4-4--2-2-2-2-2-2-2-2-2-2-2-2-2-2-2-2--------------|
G|------------4--4-4-4-4-4-4-4--2-2-2-2-2-2-2-2-2-2-2-2-2-2-2-2--------------|
C|------------4--4-4-4-4-4-4-4--2-2-2-2-2-2-2-2-2-2-2-2-2-2-2-2--------------|

D|---------------------------------------------------------------------------|
A|---------------------------------------------------------------------------|
F|---------------------------------------------------------------------------|
C|--7-7-7--7--4--4-4-4-4-4-4-4--2-2-2-2-2-2-2-2-2-2-2-2-2-2-2-2--------------| x3
G|--7-7-7--7--4--4-4-4-4-4-4-4--2-2-2-2-2-2-2-2-2-2-2-2-2-2-2-2--------------|
C|--7-7-7--7--4--4-4-4-4-4-4-4--2-2-2-2-2-2-2-2-2-2-2-2-2-2-2-2--------------|

Pre-Verse (Let Ring)

D|------------------------|
A|------------------------|
F|-------------4----------|
C|--7---4---2--4---4------|
G|--7---4---2--2---4------|
C|--7---4---2------4------|


Verse 2                                              
D|---------------------------------------------------|                  
A|---------------------------------------------------|                  
F|---------------------------------------------------|                  
C|--7-7-7--7-7-7--7-7-7--4-4-4--4-4-4--4-4-4--4-4-4--|                  
G|--7-7-7--7-7-7--7-7-7--4-4-4--4-4-4--4-4-4--4-4-4--|                  
C|--7-7-7--7-7-7--7-7-7--4-4-4--4-4-4--4-4-4--4-4-4--|                  
P.M.* *    * *    * *    * *    * *    * *    * *                       
                                                                        Both 2x
D|---------------------------------------------------------|
A|---------------------------------------------------------|
F|---------------------------------------------------------|
C|--2-2-2--2-2-2--2-2-2--2-2-2--4-4-4--4-4-4--4-4-4--4-4-4-|
G|--2-2-2--2-2-2--2-2-2--2-2-2--2-2-2--2-2-2--4-4-4--4-4-4-|
C|--2-2-2--2-2-2--2-2-2--2-2-2----------------4-4-4--4-4-4-|
P.M.* *    * *    * *    * *    * *    * *    * *    * *



Chorus 2
D|---------------------------------------------------------------------------|
A|---------------------------------------------------------------------------|
F|---------------------------------------------------------------------------|
C|------------4--4-4-4-4-4-4-4--2-2-2-2-2-2-2-2-2-2-2-2-2-2-2-2--------------|
G|------------4--4-4-4-4-4-4-4--2-2-2-2-2-2-2-2-2-2-2-2-2-2-2-2--------------|
C|------------4--4-4-4-4-4-4-4--2-2-2-2-2-2-2-2-2-2-2-2-2-2-2-2--------------|

D|---------------------------------------------------------------------------|
A|---------------------------------------------------------------------------|
F|---------------------------------------------------------------------------|
C|--7-7-7--7--4--4-4-4-4-4-4-4--2-2-2-2-2-2-2-2-2-2-2-2-2-2-2-2--------------| x7
G|--7-7-7--7--4--4-4-4-4-4-4-4--2-2-2-2-2-2-2-2-2-2-2-2-2-2-2-2--------------|
C|--7-7-7--7--4--4-4-4-4-4-4-4--2-2-2-2-2-2-2-2-2-2-2-2-2-2-2-2--------------|

Bridge Part 1 (play 2x)

D|----------------------------------|                 
A|----------------------------------|                  
F|----------------------------------|                  
C|--7-7-x-x-x-x-x-x-x-x-x-x-x-x-x-x-|
G|--7-7-x-x-x-x-x-x-x-x-x-x-x-x-x-x-|                 
C|--7-7-x-x-x-x-x-x-x-x-x-x-x-x-x-x-| 

D|----------------------------------|                 
A|----------------------------------|                  
F|----------------------------------|                  
C|--4-4-x-x-x-x-x-x-x-x-x-x-x-x-x-x-|
G|--4-4-x-x-x-x-x-x-x-x-x-x-x-x-x-x-|                 
C|--4-4-x-x-x-x-x-x-x-x-x-x-x-x-x-x-|

D|----------------------------------|                 
A|----------------------------------|                  
F|----------------------------------|                  
C|--2-2-x-x-x-x-x-x-x-x-x-x-x-x-x-x-|
G|--2-2-x-x-x-x-x-x-x-x-x-x-x-x-x-x-|                 
C|--2-2-x-x-x-x-x-x-x-x-x-x-x-x-x-x-|

D|--------------------------------------|                 
A|--------------------------------------|                  
F|--4-4---------------------------------|                  
C|--4-4-x-x-x-x-x-x-4-4-x-x-x-x-x-x-x-x-|
G|--2-2-x-x-x-x-x-x-4-4-x-x-x-x-x-x-x-x-|                 
C|------x-x-x-x-x-x-4-4-x-x-x-x-x-x-x-x-|

Bridge Part 2 (Play 2x)

D|-------------------------------------------------------------------|                  
A|-------------------------------------------------------------------|                  
F|-------------------------------------------------------------------|                  
C|--7-7-7-7-7-7-7-7-7-7-7-7-7-7-7-7---4-4-4-4-4-4-4-4-4-4-4-4-4-4-4-4|                  
G|--7-7-7-7-7-7-7-7-7-7-7-7-7-7-7-7---4-4-4-4-4-4-4-4-4-4-4-4-4-4-4-4|                  
C|--7-7-7-7-7-7-7-7-7-7-7-7-7-7-7-7---4-4-4-4-4-4-4-4-4-4-4-4-4-4-4-4|   

D|-------------------------------------------------------------------|                  
A|-------------------------------------------------------------------|                  
F|------------------------------------4-4-4-4-4-4-4-4----------------|                  
C|--2-2-2-2-2-2-2-2-2-2-2-2-2-2-2-2---4-4-4-4-4-4-4-4-4-4-4-4-4-4-4-4|                  
G|--2-2-2-2-2-2-2-2-2-2-2-2-2-2-2-2---2-2-2-2-2-2-2-2-4-4-4-4-4-4-4-4|                  
C|--2-2-2-2-2-2-2-2-2-2-2-2-2-2-2-2-------------------4-4-4-4-4-4-4-4|   


Outro

D|--------------------|
A|--------------------|
F|--------------------|
C|-4--7-7-7-7-7-7-4-2-|
G|-4--7-7-7-7-7-7-4-2-|
C|-4--7-7-7-7-7-7-4-2-|




Lead Guitar



INTRO
D|--7p0-4p0-2p0-4p0-2h4p0--7p0-4p0-2p0-4p0-4h5p0---7p0-4p0-2p0-4p0-2h4p0--7p0-4p0-2p0-4h5p0-4h5p0-0-|
A|--------------------------------------------------------------------------------------------------|
F|--------------------------------------------------------------------------------------------------|
C|--------------------------------------------------------------------------------------------------| x2
G|--------------------------------------------------------------------------------------------------|
C|--------------------------------------------------------------------------------------------------|


VERSE
D|--2/4-4-4-4-4-4-4-4---|
A|--5---5-5-5-5-5-5-5---|
F|----------------------|
C|----------------------| x8
G|----------------------|
C|----------------------|


CHORUS 1
D|--7p0-4p0-2p0-4p0-2h4p0--7p0-4p0-2p0-4p0-4h5p0---7p0-4p0-2p0-4p0-2h4p0--7p0-4p0-2p0-4h5p0-4h5p0-0-|
A|--------------------------------------------------------------------------------------------------|
F|--------------------------------------------------------------------------------------------------|
C|--------------------------------------------------------------------------------------------------| x2
G|--------------------------------------------------------------------------------------------------|
C|--------------------------------------------------------------------------------------------------|

PREVERSEE
Hold out open note on 1st(Bottom/D string)

VERSE 2 (PLAY 4 TIMES)
D|------------------------|
A|------------------------|
F|--11-13-13-13-13-13-13--| x3
C|--11-13-13-13-13-13-13--| 
G|--9--11-11-11-11-11-11--|
C|------------------------|

D|------------------------|
A|------------------------|
F|--13-13-11-11-9-9-8-8---| x3
C|--13-13-11-11-9-9-8-8---| 
G|--11-11-9--9--7-7-6-6---|
C|------------------------|


CHORUS 2 
D|--7p0-4p0-2p0-4p0-2h4p0--7p0-4p0-2p0-4p0-4h5p0---7p0-4p0-2p0-4p0-2h4p0--7p0-4p0-2p0-4h5p0-4h5p0-0-|
A|--------------------------------------------------------------------------------------------------|
F|--------------------------------------------------------------------------------------------------|
C|--------------------------------------------------------------------------------------------------| x4
G|--------------------------------------------------------------------------------------------------|
C|--------------------------------------------------------------------------------------------------|

BRIDGE
D|--7p0-7p0-7p0-7p0-7p0-7p0--2p0-2p0-2p0-2p0-2p0-2p0--4p0-4p0-4p0-4p0-4p0-4p0--5p0-5p0-7p0-2p0-2p0--|
A|--------------------------------------------------------------------------------------------------|
F|--------------------------------------------------------------------------------------------------|
C|--------------------------------------------------------------------------------------------------| x2
G|--------------------------------------------------------------------------------------------------|
C|--------------------------------------------------------------------------------------------------|

D|--------------------------------------------------------------------------------------------------|
A|--------------------------------------------------------------------------------------------------|
F|---9-9-9-9-11-11-11-11-13-13-13-13-13-13-13-13-9-9-9-9-9-9-9-9-9-9-11-11-11-11-9-9----------------|
C|--------------------------------------------------------------------------------------------------| 
G|---7-7-7-7-9--9--9--9--11-11-11-11-11-11-11-11-7-7-7-7-7-7-7-7-7-7-9--9--9--9--7-7----------------|
C|--------------------------------------------------------------------------------------------------|

D|--------------------------------------------------------------------------------------------------|
A|--------------------------------------------------------------------------------------------------|
F|---9-9-9-9-11-11-11-11-13-13-13-13-13-13-13-13-11-11-11-11-11-11-11-11-11-11-11-11-9-9-9-9--------|
C|--------------------------------------------------------------------------------------------------| 
G|---7-7-7-7-9--9--9--9--11-11-11-11-11-11-11-11-9--9--9--9--9--9--9--9--9--9--9--9--7-7-7-7--------|
C|--------------------------------------------------------------------------------------------------|

D|--------------------------------------------------------------------------------------------------|
A|--------------------------------------------------------------------------------------------------|
F|---9-9-9-9-11-11-11-11-13-13-13-13-13-13-13-13-9-9-9-9-9-9-9-9-9-9-11-11-11-11-9-9----------------|
C|--------------------------------------------------------------------------------------------------| 
G|---7-7-7-7-9--9--9--9--11-11-11-11-11-11-11-11-7-7-7-7-7-7-7-7-7-7-9--9--9--9--7-7----------------|
C|--------------------------------------------------------------------------------------------------|

D|--------------------------------------------------------------------------------------------------|
A|--------------------------------------------------------------------------------------------------|
F|---9-9-9-9-11-11-11-11-13-13-13-13-13-13-13-13-11-11-11-11-11-11-11-11-11-11-11-11-9-9-9-9--------|
C|--------------------------------------------------------------------------------------------------| 
G|---7-7-7-7-9--9--9--9--11-11-11-11-11-11-11-11-9--9--9--9--9--9--9--9--9--9--9--9--7-7-7-7--------|
C|--------------------------------------------------------------------------------------------------|


D|------------------------------|
A|------------------------------|
F|--11--13-13-13-13-16-13-11-9--|
C|------------------------------| 
G|--9---11-11-11-11-14-11-9--7--|
C|------------------------------|



3rd Guitar:

INTRO
D|------------------------------------|
A|------------------------------------|
F|--11-13-13-13-13-9-9-9-9-9-9-9-9-9-9| 
C|------------------------------------| 
G|--9--11-11-11-11-7-7-7-7-7-7-7-7-7-7|
C|------------------------------------|

D|----------------------------------------|
A|----------------------------------------|
F|--11-13-13-13-13-11-11-11-11-9-9-9-9-9-9| 
C|----------------------------------------| 
G|--9--11-11-11-11-9--9--9--9--7-7-7-7-7-7|
C|----------------------------------------|

D|------------------------------------|
A|------------------------------------|
F|--11-13-13-13-13-9-9-9-9-9-9-9-9-9-9| 
C|------------------------------------| 
G|--9--11-11-11-11-7-7-7-7-7-7-7-7-7-7|
C|------------------------------------|

D|--------------------------------------------|
A|--------------------------------------------|
F|--11-13-13-13-13-11-11-13-13-11-11-9-9-11-11| 
C|--------------------------------------------| 
G|--9--11-11-11-11-9--9--11-11-9--9--7-7-9--9-|
C|--------------------------------------------|

D|------------------------------------|
A|------------------------------------|
F|--11-13-13-13-13-9-9-9-9-9-9-9-9-9-9| 
C|------------------------------------| 
G|--9--11-11-11-11-7-7-7-7-7-7-7-7-7-7|
C|------------------------------------|

D|----------------------------------------|
A|----------------------------------------|
F|--11-13-13-13-13-11-11-11-11-9-9-9-9-9-9| 
C|----------------------------------------| 
G|--9--11-11-11-11-9--9--9--9--7-7-7-7-7-7|
C|----------------------------------------|

D|------------------------------------|
A|------------------------------------|
F|--11-13-13-13-13-9-9-9-9-9-9-9-9-9-9| 
C|------------------------------------| 
G|--9--11-11-11-11-7-7-7-7-7-7-7-7-7-7|
C|------------------------------------|

D|--------------------------------------------|
A|--------------------------------------------|
F|--11-13-13-13-13-11-11-13-13-11-11-9-9-11-11| 
C|--------------------------------------------| 
G|--9--11-11-11-11-9--9--11-11-9--9--7-7-9--9-|
C|--------------------------------------------|

VERSE 1
Don't play


CHORUS
D|------------------------------------|
A|------------------------------------|
F|---------------------9-9-9-9-9-9-9-9| 
C|-----------------2-2----------------| 
G|-----------------2-2-7-7-7-7-7-7-7-7|
C|-----------------2-2----------------|

D|----------------------------------------|
A|----------------------------------------|
F|--11-13-13-13-13-11-11-11-11-9-9-9-9-9-9| 
C|----------------------------------------| 
G|--9--11-11-11-11-9--9--9--9--7-7-7-7-7-7|
C|----------------------------------------|

D|------------------------------------|
A|------------------------------------|
F|--11-13-13-13-13-9-9-9-9-9-9-9-9-9-9| 
C|------------------------------------| 
G|--9--11-11-11-11-7-7-7-7-7-7-7-7-7-7|
C|------------------------------------|

D|--------------------------------------------|
A|--------------------------------------------|
F|--11-13-13-13-13-11-11-13-13-11-11-9-9-11-11| 
C|--------------------------------------------| 
G|--9--11-11-11-11-9--9--11-11-9--9--7-7-9--9-|
C|--------------------------------------------|

D|------------------------------------|
A|------------------------------------|
F|--11-13-13-13-13-9-9-9-9-9-9-9-9-9-9| 
C|------------------------------------| 
G|--9--11-11-11-11-7-7-7-7-7-7-7-7-7-7|
C|------------------------------------|

D|----------------------------------------|
A|----------------------------------------|
F|--11-13-13-13-13-11-11-11-11-9-9-9-9-9-9| 
C|----------------------------------------| 
G|--9--11-11-11-11-9--9--9--9--7-7-7-7-7-7|
C|----------------------------------------|

D|------------------------------------|
A|------------------------------------|
F|--11-13-13-13-13-9-9-9-9-9-9-9-9-9-9| 
C|------------------------------------| 
G|--9--11-11-11-11-7-7-7-7-7-7-7-7-7-7|
C|------------------------------------|

D|--------------------------------------------|
A|--------------------------------------------|
F|--11-13-13-13-13-11-11-13-13-11-11-9-9-11-11| 
C|--------------------------------------------| 
G|--9--11-11-11-11-9--9--11-11-9--9--7-7-9--9-|
C|--------------------------------------------|




PRE-VERSE
Don't Play 

VERSE 1
Don't play

CHORUS 2 (PLAY 2X)
D|------------------------------------|
A|------------------------------------|
F|---------------------9-9-9-9-9-9-9-9| 
C|-----------------2-2----------------| 
G|-----------------2-2-7-7-7-7-7-7-7-7|
C|-----------------2-2----------------|

D|----------------------------------------|
A|----------------------------------------|
F|--11-13-13-13-13-11-11-11-11-9-9-9-9-9-9| 
C|----------------------------------------| 
G|--9--11-11-11-11-9--9--9--9--7-7-7-7-7-7|
C|----------------------------------------|

D|------------------------------------|
A|------------------------------------|
F|--11-13-13-13-13-9-9-9-9-9-9-9-9-9-9| 
C|------------------------------------| 
G|--9--11-11-11-11-7-7-7-7-7-7-7-7-7-7|
C|------------------------------------|

D|--------------------------------------------|
A|--------------------------------------------|
F|--11-13-13-13-13-11-11-13-13-11-11-9-9-11-11| 
C|--------------------------------------------| 
G|--9--11-11-11-11-9--9--11-11-9--9--7-7-9--9-|
C|--------------------------------------------|

D|------------------------------------|
A|------------------------------------|
F|--11-13-13-13-13-9-9-9-9-9-9-9-9-9-9| 
C|------------------------------------| 
G|--9--11-11-11-11-7-7-7-7-7-7-7-7-7-7|
C|------------------------------------|

D|----------------------------------------|
A|----------------------------------------|
F|--11-13-13-13-13-11-11-11-11-9-9-9-9-9-9| 
C|----------------------------------------| 
G|--9--11-11-11-11-9--9--9--9--7-7-7-7-7-7|
C|----------------------------------------|

D|------------------------------------|
A|------------------------------------|
F|--11-13-13-13-13-9-9-9-9-9-9-9-9-9-9| 
C|------------------------------------| 
G|--9--11-11-11-11-7-7-7-7-7-7-7-7-7-7|
C|------------------------------------|

D|--------------------------------------------|
A|--------------------------------------------|
F|--11-13-13-13-13-11-11-13-13-11-11-9-9-11-11| 
C|--------------------------------------------| 
G|--9--11-11-11-11-9--9--11-11-9--9--7-7-9--9-|
C|--------------------------------------------|            
Submit corrections


        Crushing Grief  lessons Hard to play? Try these video lessons and learn fast Crushing Grief  lessons
        
↑ Back to top | Tablatures and chords for acoustic guitar and electric guitar, ukulele, drums are parodies/interpretations of the original songs. You may use it for private study, scholarship, research or language learning purposes only