» » »

Neck Deep - Beautiful Madness Tabs

Artists:  A B C D E F G H I J K L M N O P Q R S T U V W X Y Z # 

Beautiful Madness Tabs

(ver. 1) Click to play this song!
Neck Deep
 Rating:
4.3/5 (26 votes)

 Beautiful Madness lessons Tabs too difficult? Try these video lessons and learn fast
 
                Intro] Guitar 1
D#|---------------------------------------------|----------------------------------------------|
A#|--10--10--9--10--10------10--10--12--12--12--|--14--14--12--14--14------14--14--15--15--15--|
F#|---9---9--9----------11----------11--11--11--|--14--14--14----------14----------14--14--14--|
C#|---------------------------------------------|----------------------------------------------|
G#|---------------------------------------------|----------------------------------------------|
C#|---------------------------------------------|----------------------------------------------|

D#|---------------------------------------------|------------------------------------------------------|
A#|--10--10--9--10--10------10--10--12--12--12--|--14--14--14--12--12--12--14--14--15--15--15--15--15--|
F#|---9---9--9----------11----------11--11--11--|--14--14--14--14--14--14--14--14--14--14--14--14--14--|
C#|---------------------------------------------|------------------------------------------------------|
G#|---------------------------------------------|------------------------------------------------------|
C#|---------------------------------------------|------------------------------------------------------|

[Intro] Guitar 2
D#|------------------------------------------|
A#|------------------------------------------|
F#|------------------------------------------|
C#|--0--0--0----2--2--2--7--7--7----6--6--6--|
G#|--0--0--0----2--2--2--7--7--7----7--7--7--|
C#|--0--0--0----2--2--2--7--7--7----6--6--6--|

D#|----------------------------------------------------------|
A#|----------------------------------------------------------|
F#|----------------------------------------------------------|
C#|--0--0--0----2--2--2--4--4--4--4--4--4--4--2--2--2--2--2--|
G#|--0--0--0----2--2--2--4--4--4--4--4--4--4--2--2--2--2--2--|
C#|--0--0--0----2--2--2--4--4--4--4--4--4--4--2--2--2--2--2--|
                          

[Verse] Guitar 1:
"We Can't Go Back..."
D#|-----------------------------------------|------------------------------------------|
A#|--10--10--9--10--10--10--10--12--12--12--|--14--14--12--14--14--14--14--15--15--15--|
F#|---9---9--9---9---9---9---9---9---9---9--|--14--14--14--14--14--14--14--14--14--14--|
C#|-----------------------------------------|------------------------------------------|
G#|-----------------------------------------|------------------------------------------|
C#|-----------------------------------------|------------------------------------------|

D#|-----------------------------------------|------------------------------------------|
A#|--10--10--9--10--10--10--10--12--12--12--|--14--14--12--14--14------15--14--15--15--|
F#|---9---9--9---9---9---9---9---9---9---9--|--14--14--14--14--14--14------------------|
C#|-----------------------------------------|------------------------------------------|
G#|-----------------------------------------|------------------------------------------|
C#|-----------------------------------------|------------------------------------------|

[Verse] Guitar 2:
"We Can't Go Back..."
D#|------------------|--------------------|------------------|--------------------|
A#|------------------|--------------------|------------------|--------------------|
F#|------------------|--------------------|------------------|--------------------|
C#|--0--0---0--0--0--|--0--0--0--2--2--2--|--7--7---7--7--7--|--7--7--7--6--6--6--|
G#|--0--0---0--0--0--|--0--0--0--2--2--2--|--7--7---7--7--7--|--7--7--7--7--7--7--|
C#|--0--0---0--0--0--|--0--0--0--2--2--2--|--7--7---7--7--7--|--7--7--7--6--6--6--|

D#|------------------|--------------------|------------------|------------------|
A#|------------------|--------------------|------------------|------------------|
F#|------------------|--------------------|------------------|------------------|
C#|--0--0---0--0--0--|--0--0--0--2--2--2--|--4--4---4--4--4--|--2--2---2--2--2--|
G#|--0--0---0--0--0--|--0--0--0--2--2--2--|--4--4---4--4--4--|--2--2---2--2--2--|
C#|--0--0---0--0--0--|--0--0--0--2--2--2--|--4--4---4--4--4--|--2--2---2--2--2--|

[Pre-Chorus] Guitar 1:
"Take Me Back..."
D#|------------|------------------|----------------------|----------------------|
A#|------------|------------------|----------------------|----------------------|
F#|--11-11-11--|--14--14--13--14--|--18--18--18--16--16--|--19--19--16--16--16--|
C#|---x--x--x--|---x---x---x---x--|---x---x---x---x---x--|---x---x---x---x---x--|
G#|---9--9--9--|--12--12--11--12--|--16--16--16--14--14--|--17--17--14--14--14--|
C#|------------|------------------|----------------------|----------------------|(x2)

[Pre-Chorus] Guitar 2:
"Take Me Back..."
D#|-----------|--------------------|------------------|------------------|
A#|-----------|--------------------|------------------|------------------|
F#|-----------|--------------------|------------------|------------------|
C#|--0--0--0--|--0--0--0--2--2--2--|--7--7---7--7--7--|--7--7---6--6--6--|
G#|--0--0--0--|--0--0--0--2--2--2--|--7--7---7--7--7--|--7--7---7--7--7--|
C#|--0--0--0--|--0--0--0--2--2--2--|--7--7---7--7--7--|--7--7---6--6--6--|


D#|-----------|--------------------|------------------|------------------|
A#|-----------|--------------------|------------------|------------------|
F#|-----------|--------------------|------------------|------------------|
C#|--0--0--0--|--0--0--0--2--2--2--|--4--4---4--4--4--|--2--2---2--2--2--|
G#|--0--0--0--|--0--0--0--2--2--2--|--4--4---4--4--4--|--2--2---2--2--2--|
C#|--0--0--0--|--0--0--0--2--2--2--|--4--4---4--4--4--|--2--2---2--2--2--|

[Break] Guitar 1:
"Just Slow Down"
D#|-------------|
A#|--7---10--9--|
F#|--x----x--x--|
C#|--x----x--x--|
G#|--5----9--7--|
C#|-------------|

[Chorus] Guitar 1:
"Say Something Sweet..."
D#|---------------9---------|-------------------------|------------------|--------------------|
A#|--10-----9-----------10--|--9-----10-----12/14\10--|--7--7--7/10\7-7--|--7--7--9--------7--|
F#|------9-----9-----9------|-----9------9------------|------------------|-----------9--9-----|
G#|-------------------------|-------------------------|------------------|--------------------|
G#|-------------------------|-------------------------|------------------|--------------------|
C#|-------------------------|-------------------------|------------------|--------------------|(x2)

D#|----------9-----9--|--7--9--10------9---|------------------------------|---------------------------|
A#|--10--12-----------|------------10------|----------10----------10------|--10-----------9-----------|
F#|-------------9-----|--------------------|--11--11------11--11------11--|------9--9--9-----9--9--9--|
C#|-------------------|--------------------|------------------------------|---------------------------|
G#|-------------------|--------------------|------------------------------|---------------------------|
C#|-------------------|--------------------|------------------------------|---------------------------|

D#|---------------------------------------7\--|
A#|--7--7---7--7--7--7---7--10-------9--------|
F#|-----------------------------9-------------|
C#|-------------------------------------------|
G#|-------------------------------------------|
C#|-------------------------------------------|

[Chorus]
"Say Something Sweet..."
D#|----------------------------|-----------------------------------|
A#|----------------------------|-----------------------------------|
F#|----------------------------|-----------------------------------|
C#|--7--7--x--x--2p0--2--x--x--|--0--0--x--x--4--4--4--4--4--2--2--|
G#|--7--7--x--x--2p0--2--x--x--|--0--0--x--x--4--4--4--4--4--2--2--|
C#|--7--7--x--x--2p0--2--x--x--|--0--0--x--x--4--4--4--4--4--2--2--|

D#|----------------------------|---------------------------------|
A#|----------------------------|---------------------------------|
F#|----------------------------|---------------------------------|
C#|--7--7--x--x--2p0--2--x--x--|--0--0--x--x--4--4--4--4---6--6--|
G#|--7--7--x--x--2p0--2--x--x--|--0--0--x--x--4--4--4--4---7--7--|
C#|--7--7--x--x--2p0--2--x--x--|--0--0--x--x--4--4--4--4---6--6--|

D#|----------------------------|----------------------------------|
A#|----------------------------|----------------------------------|
F#|----------------------------|----------------------------------|
C#|--7--7--x--x--2p0--2--x--x--|--0--0--x--x--4--4--4--4----2--2--|
G#|--7--7--x--x--2p0--2--x--x--|--0--0--x--x--4--4--4--4----2--2--|
C#|--7--7--x--x--2p0--2--x--x--|--0--0--x--x--4--4--4--4----2--2--|

D#|-----------------------|-------------------------|
A#|-----------------------|-------------------------|
F#|-----------------------|-------------------------|
C#|--0--0--0--0--0--0--0--|--4--2--2---2--2--2---2--|
G#|--0--0--0--0--0--0--0--|--4--2--2---2--2--2---2--|
C#|--0--0--0--0--0--0--0--|--4--2--2---2--2--2---2--|

[PostChorus] Guitar 1:
D#|--------------------------------------------|------------------------------------------|
A#|--10--10--9--10--10--9--10--10--12--12--12--|--14--14--12--14--14--14--14--15--15--15--|
F#|---9---9--9---9---9--9---9---9---9---9---9--|--14--14--14--14--14--14--14--14--14--14--|
C#|--------------------------------------------|------------------------------------------|
G#|--------------------------------------------|------------------------------------------|
C#|--------------------------------------------|------------------------------------------|

D#|-----------------------------------------|------------------------------------------|
A#|--10--10--9--10--10--10--10--12--12--12--|--14--14--12--14--14------15--14--15--15--|
F#|---9---9--9---9---9---9---9---9---9---9--|--14--14--14--14--14--14------------------|
C#|-----------------------------------------|------------------------------------------|
G#|-----------------------------------------|------------------------------------------|
C#|-----------------------------------------|------------------------------------------|

[PostChorus] Guitar 2:
D#|------------------|--------------------|------------------|--------------------|
A#|------------------|--------------------|------------------|--------------------|
F#|------------------|--------------------|------------------|--------------------|
C#|--0--0---0--0--0--|--0--0--0--2--2--2--|--7--7---7--7--7--|--7--7--7--6--6--6--|
G#|--0--0---0--0--0--|--0--0--0--2--2--2--|--7--7---7--7--7--|--7--7--7--7--7--7--|
C#|--0--0---0--0--0--|--0--0--0--2--2--2--|--7--7---7--7--7--|--7--7--7--6--6--6--|

D#|------------------|--------------------|------------------|------------------|
A#|------------------|--------------------|------------------|------------------|
F#|------------------|--------------------|------------------|------------------|
C#|--0--0---0--0--0--|--0--0--0--2--2--2--|--4--4---4--4--4--|--2--2---2--2--2--|
G#|--0--0---0--0--0--|--0--0--0--2--2--2--|--4--4---4--4--4--|--2--2---2--2--2--|
C#|--0--0---0--0--0--|--0--0--0--2--2--2--|--4--4---4--4--4--|--2--2---2--2--2--|


[Verse 2] Guitar 1:
"I've Come Too Far..."
D#|------------------------------|---------------------------|
A#|----------10------9h10p9------|----------10------9/10/12--|
F#|--11--11------11----------11--|--11--11------11-----------|
C#|------------------------------|---------------------------|
G#|------------------------------|---------------------------|
C#|------------------------------|---------------------------|

D#|--------------------------|----------------------------|
A#|--------10-----9h10p9-----|--------10-----12/14\12\10--|
F#|--9--9------9----------9--|--9--9------9---------------|
C#|--------------------------|----------------------------|
G#|--------------------------|----------------------------|
C#|--------------------------|----------------------------|

D#|------------------------------|---------------------------|
A#|----------10------9h10p9------|----------10------9/10/12--|
F#|--11--11------11----------11--|--11--11------11-----------|
C#|------------------------------|---------------------------|
G#|------------------------------|---------------------------|
C#|------------------------------|---------------------------|

D#|------------------|--------------------|
A#|------------------|--------------------|
F#|-11-11--11-11-11--|--9--9---9--13--13--|
C#|--x--x---x--x--x--|--x--x---x---x---x--|
G#|--9--9---9--9--9--|--7--7---7--11--11--|
C#|------------------|--------------------|

[Verse 2] Guitar 1:
"We Can Never Escape..."
D#|------------------|------------------|
A#|------------------|------------------|
F#|------------------|------------------|
C#|--4--4---4--4--4--|--2--2---2--2--2--|
G#|--4--4---4--4--4--|--2--2---2--2--2--|
C#|--4--4---4--4--4--|--2--2---2--2--2--|


[PreChorus 2] Guitar 1:
"There's No Hope..."
D#|-----------------------------------------|------------------------------------------|
A#|--10--10--9--10--10--10--10--12--12--12--|--14--14--12--14--14--14--14--15--15--15--|
F#|---9---9--9---9---9---9---9---9---9---9--|--14--14--14--14--14--14--14--14--14--14--|
C#|-----------------------------------------|------------------------------------------|
G#|-----------------------------------------|------------------------------------------|
C#|-----------------------------------------|------------------------------------------|

D#|-----------------------------------------|--------------------------------------|
A#|--10--10--9--10--10--10--10--12--12--12--|--14--14--12--14--14--15--15--14--15--|
F#|---9---9--9---9---9---9---9---9---9---9--|--14--14--14--14--14--14--14--14--14--|
C#|-----------------------------------------|--------------------------------------|
G#|-----------------------------------------|--------------------------------------|
C#|-----------------------------------------|--------------------------------------|


[PreChorus 2] Guitar 2:
"Take Me Back..."
D#|-----------|--------------------|------------------|------------------|
A#|-----------|--------------------|------------------|------------------|
F#|-----------|--------------------|------------------|------------------|
C#|--0--0--0--|--0--0--0--2--2--2--|--7--7---7--7--7--|--7--7---6--6--6--|
G#|--0--0--0--|--0--0--0--2--2--2--|--7--7---7--7--7--|--7--7---7--7--7--|
C#|--0--0--0--|--0--0--0--2--2--2--|--7--7---7--7--7--|--7--7---6--6--6--|


D#|-----------|--------------------|------------------|------------------|
A#|-----------|--------------------|------------------|------------------|
F#|-----------|--------------------|------------------|------------------|
C#|--0--0--0--|--0--0--0--2--2--2--|--4--4---4--4--4--|--2--2---2--2--2--|
G#|--0--0--0--|--0--0--0--2--2--2--|--4--4---4--4--4--|--2--2---2--2--2--|
C#|--0--0--0--|--0--0--0--2--2--2--|--4--4---4--4--4--|--2--2---2--2--2--|


[Break] Guitar 1:
"Just Slow Down"
D#|-------------|--------------------------------------------9h12--9--|-----------------------9--10--10--10--|
A#|--7---10--9--|--10-----10-----10-----10-----10-----10h12-----------|--9--9--10--10--12--12----------------|
F#|--x----x--x--|------9------9------9------9------9------------------|--9--9---9---9---9---9----------------|
C#|--x----x--x--|-----------------------------------------------------|--------------------------------------|
G#|--5----9--7--|-----------------------------------------------------|--------------------------------------|
C#|-------------|-----------------------------------------------------|--------------------------------------|

[Break] Guitar 2:
"Take A Minute.."
D#|-----|------------------------------------------------|
A#|-----|------------------------------------------------|
F#|-----|------------------------------------------------|
C#|--0--|--2---2--2--2--2--2--2--2--2--2--2--2--2--2--2--|
G#|--0--|--2---2--2--2--2--2--2--2--2--2--2--2--2--2--2--|
C#|--0--|--2---2--2--2--2--2--2--2--2--2--2--2--2--2--2--|

[Chorus] Guitar 1:
"Say Something Sweet..."
D#|---------------9---------|-------------------------|------------------|--------------------|
A#|--10-----9-----------10--|--9-----10-----12/14\10--|--7--7--7/10\7-7--|--7--7--9--------7--|
F#|------9-----9-----9------|-----9------9------------|------------------|-----------9--9-----|
G#|-------------------------|-------------------------|------------------|--------------------|
G#|-------------------------|-------------------------|------------------|--------------------|
C#|-------------------------|-------------------------|------------------|--------------------|(x2)

D#|----------9-----9--|--7--9--10------9---|------------------------------|---------------------------|
A#|--10--12-----------|------------10------|----------10----------10------|--10-----------9-----------|
F#|-------------9-----|--------------------|--11--11------11--11------11--|------9--9--9-----9--9--9--|
C#|-------------------|--------------------|------------------------------|---------------------------|
G#|-------------------|--------------------|------------------------------|---------------------------|
C#|-------------------|--------------------|------------------------------|---------------------------|

D#|---------------------------------------7\--|
A#|--7--7---7--7--7--7---7--10-------9--------|
F#|-----------------------------9-------------|
C#|-------------------------------------------|
G#|-------------------------------------------|
C#|-------------------------------------------|

[Chorus]
"Say Something Sweet..."
D#|----------------------------|-----------------------------------|
A#|----------------------------|-----------------------------------|
F#|----------------------------|-----------------------------------|
C#|--7--7--x--x--2p0--2--x--x--|--0--0--x--x--4--4--4--4--4--2--2--|
G#|--7--7--x--x--2p0--2--x--x--|--0--0--x--x--4--4--4--4--4--2--2--|
C#|--7--7--x--x--2p0--2--x--x--|--0--0--x--x--4--4--4--4--4--2--2--|

D#|----------------------------|---------------------------------|
A#|----------------------------|---------------------------------|
F#|----------------------------|---------------------------------|
C#|--7--7--x--x--2p0--2--x--x--|--0--0--x--x--4--4--4--4---6--6--|
G#|--7--7--x--x--2p0--2--x--x--|--0--0--x--x--4--4--4--4---7--7--|
C#|--7--7--x--x--2p0--2--x--x--|--0--0--x--x--4--4--4--4---6--6--|

D#|----------------------------|----------------------------------|
A#|----------------------------|----------------------------------|
F#|----------------------------|----------------------------------|
C#|--7--7--x--x--2p0--2--x--x--|--0--0--x--x--4--4--4--4----2--2--|
G#|--7--7--x--x--2p0--2--x--x--|--0--0--x--x--4--4--4--4----2--2--|
C#|--7--7--x--x--2p0--2--x--x--|--0--0--x--x--4--4--4--4----2--2--|

D#|-----------------------|-------------------------|
A#|-----------------------|-------------------------|
F#|-----------------------|-------------------------|
C#|--0--0--0--0--0--0--0--|--4--2--2---2--2--2---2--|
G#|--0--0--0--0--0--0--0--|--4--2--2---2--2--2---2--|
C#|--0--0--0--0--0--0--0--|--4--2--2---2--2--2---2--|

[Bridge] Guitar 1
"This Is Beautiful Madness..."
D#|-------------------------|
A#|--10--14--9----9/10\9\7--|
F#|---x---x--x--------------|
C#|---x---x--x--------------|
G#|---9--12--7-----7/9\7\5--|
C#|-------------------------|

D#|-----------------------------------------|-------------------------------------|
A#|--10--14--9--(7)-(7)-(7)--9/10\9\7--(7)--|--10--14--9--(7)-(7)-(7)--9/10\9/10--|
C#|-----------------------------------------|-------------------------------------|
C#|-----------------------------------------|-------------------------------------|
G#|-----------------------------------------|-------------------------------------|
C#|-----------------------------------------|-------------------------------------|

D#|-------------------|----------------------14--|
A#|--10/12--12/14--9--|--10/12\10-----10/12------|
F#|-------------------|------------9-------------|
C#|-------------------|--------------------------|
G#|-------------------|--------------------------|
C#|-------------------|--------------------------|


[Bridge]
"...Love And Sadness..."
D#|---------------------------------------------------------------------------------|
A#|---------------------------------------------------------------------------------|
F#|---------------------------------------------------------------------------------|
C#|--4--4--7--7--2---2--2--2--2/4---0--0--0--0--0--0--0--0--0--0--0--0--0--0--0--0--|
G#|--4--4--7--7--2---2--2--2--2/4---0--0--0--0--0--0--0--0--0--0--0--0--0--0--0--0--|
C#|--4--4--7--7--2---2--2--2--2/4---0--0--0--0--0--0--0--0--0--0--0--0--0--0--0--0--|(x2)

D#|--------------------------------------------------|
A#|--------------------------------------------------|
F#|--------------------------------------------------|
C#|--2--2--2--2--2--2--2--2--2--2--2--2--2--2--2--2--|
G#|--2--2--2--2--2--2--2--2--2--2--2--2--2--2--2--2--|
C#|--2--2--2--2--2--2--2--2--2--2--2--2--2--2--2--2--|

[Final Chorus] Guitar 1:
"Something Sweet and Innocent..."
D#|------------------|--------------------|
A#|--7--7--7/10\7-7--|--7--7--9--------7--|
F#|------------------|-----------9--9-----|
G#|------------------|--------------------|
G#|------------------|--------------------|
C#|------------------|--------------------|

D#|---------------9---------|-------------------------|------------------|--------------------|
A#|--10-----9-----------10--|--9-----10-----12/14\10--|--7--7--7/10\7-7--|--7--7--9--------7--|
F#|------9-----9-----9------|-----9------9------------|------------------|-----------9--9-----|
G#|-------------------------|-------------------------|------------------|--------------------|
G#|-------------------------|-------------------------|------------------|--------------------|
C#|-------------------------|-------------------------|------------------|--------------------|

D#|----------9-----9--|--7--9--10------9---|------------------------------|---------------------------|
A#|--10--12-----------|------------10------|----------10----------10------|--10-----------9-----------|
F#|-------------9-----|--------------------|--11--11------11--11------11--|------9--9--9-----9--9--9--|
C#|-------------------|--------------------|------------------------------|---------------------------|
G#|-------------------|--------------------|------------------------------|---------------------------|
C#|-------------------|--------------------|------------------------------|---------------------------|

D#|-----------------9---10------------7--|----------------10----7---------12--|
A#|--7--7---10--10----------10/12--9-----|--7--7--10--10-----------9--12------|
F#|--------------------------------------|------------------------------------|
C#|--------------------------------------|------------------------------------|
G#|--------------------------------------|------------------------------------|
C#|--------------------------------------|------------------------------------|

[Final Chorus] Guitar 2:
"Say Something Sweet..."
D#|------------------|-----------------------------------------------------------|
A#|------------------|-----------------------------------------------------------|
F#|------------------|-----------------------------------------------------------|
C#|--7--7----2p0--2--|--0--0--0--0--0--0--0--0--0--0--4--4--4--4--4--2--2--2--2--|
G#|--7--7----2p0--2--|--0--0--0--0--0--0--0--0--0--0--4--4--4--4--4--2--2--2--2--|
C#|--7--7----2p0--2--|--0--0--0--0--0--0--0--0--0--0--4--4--4--4--4--2--2--2--2--|

D#|-------------------------------------------------|--------------------------------------------------------|
A#|-------------------------------------------------|--------------------------------------------------------|
F#|-------------------------------------------------|--------------------------------------------------------|
C#|--7--7--7--7--7--7--7--7--2p0--2--2--2--2--2--2--|--0--0--0--0--0--0--0--0--0--0--4--4--4--4--6--6--6--6--|
G#|--7--7--7--7--7--7--7--7--2p0--2--2--2--2--2--2--|--0--0--0--0--0--0--0--0--0--0--4--4--4--4--6--6--6--6--|
C#|--7--7--7--7--7--7--7--7--2p0--2--2--2--2--2--2--|--0--0--0--0--0--0--0--0--0--0--4--4--4--4--6--6--6--6--|

D#|-------------------------------------------------|-------------------------------------------------------|
A#|-------------------------------------------------|-------------------------------------------------------|
F#|-------------------------------------------------|-------------------------------------------------------|
C#|--7--7--7--7--7--7--7--7--2p0--2--2--2--2--2--2--|--0--0--0--0--0--0--0--0--0--0--4--4--4--4----2--2--2--|
G#|--7--7--7--7--7--7--7--7--2p0--2--2--2--2--2--2--|--0--0--0--0--0--0--0--0--0--0--4--4--4--4----2--2--2--|
C#|--7--7--7--7--7--7--7--7--2p0--2--2--2--2--2--2--|--0--0--0--0--0--0--0--0--0--0--4--4--4--4----2--2--2--|

D#|--------------------------------------------------|--------------------------------------------------|
A#|--------------------------------------------------|--------------------------------------------------|
F#|--------------------------------------------------|--------------------------------------------------|
C#|--0--0--0--0--0--0--0--0--0--0--0--0--0--0--0--0--|--2--2--2--2--2--2--2--2--2--2--2--2--2--2--2--2--|
G#|--0--0--0--0--0--0--0--0--0--0--0--0--0--0--0--0--|--2--2--2--2--2--2--2--2--2--2--2--2--2--2--2--2--|
C#|--0--0--0--0--0--0--0--0--0--0--0--0--0--0--0--0--|--2--2--2--2--2--2--2--2--2--2--2--2--2--2--2--2--|(x2)

[Outro] Guitar 1:
D#|--------------------------------------------|------------------------------------------|
A#|--10--10--9--10--10--9--10--10--12--12--12--|--14--14--12--14--14--14--14--15--15--15--|
F#|---9---9--9---9---9--9---9---9---9---9---9--|--14--14--14--14--14--14--14--14--14--14--|
C#|--------------------------------------------|------------------------------------------|
G#|--------------------------------------------|------------------------------------------|
C#|--------------------------------------------|------------------------------------------|

D#|----------------------------------------|-------------------------|
A#|--10--10--10----10--10--10--12--12--12--|--14--14--12--14---------|
F#|---9---9--9-----9---9---9----9---9---9--|--14--14--14--14--14--9--|
C#|----------------------------------------|----------------------9--|
G#|----------------------------------------|----------------------7--|
C#|----------------------------------------|-------------------------|

[Outro] Guitar 2:
D#|------------------|--------------------|------------------|--------------------|
A#|------------------|--------------------|------------------|--------------------|
F#|------------------|--------------------|------------------|--------------------|
C#|--0--0---0--0--0--|--0--0--0--2--2--2--|--7--7---7--7--7--|--7--7--7--6--6--6--|
G#|--0--0---0--0--0--|--0--0--0--2--2--2--|--7--7---7--7--7--|--7--7--7--7--7--7--|
C#|--0--0---0--0--0--|--0--0--0--2--2--2--|--7--7---7--7--7--|--7--7--7--6--6--6--|

D#|-------------|--------------------|------------------|-----|
A#|-------------|--------------------|------------------|-----|
F#|-------------|--------------------|------------------|-----|
C#|--0--0--0----|--0--0--0--2--2--2--|--4--4---4--4--4--|--2--|
G#|--0--0--0----|--0--0--0--2--2--2--|--4--4---4--4--4--|--2--|
C#|--0--0--0----|--0--0--0--2--2--2--|--4--4---4--4--4--|--2--|            
Submit corrections


        Beautiful Madness lessons Hard to play? Try these video lessons and learn fast Beautiful Madness lessons
        
↑ Back to top | Tablatures and chords for acoustic guitar and electric guitar, ukulele, drums are parodies/interpretations of the original songs. You may use it for private study, scholarship, research or language learning purposes only