» » »

Neck Deep - A Part Of Me Tabs

Artists:  A B C D E F G H I J K L M N O P Q R S T U V W X Y Z # 

A Part Of Me Tabs

(ver. 1) Click to play this song!
Neck Deep
 Rating:
4.3/5 (21 vote)

 A Part Of Me lessons Tabs too difficult? Try these video lessons and learn fast
 
                [Verse 1]

e|--0-4/5-4-------4/5--------------------------------------------------------|
B|----------5-7-5-----5-7-9---7-7-7--9-10-9-7--7-7-7-9-10-9------------------|
G|---------------------------------------------------------------------------|
D|---------------------------------------------------------------------------|
A|---------------------------------------------------------------------------|
E|---------------------------------------------------------------------------|

e|-0--/7---------------------------------------------------------------------|
B|-------9--9-9---7-5-5/12--9---9-9-7-5-5-7-9--------------------------------|
G|--------------------------------------------9---9/11-9---------------------|
D|----------------------------------------------9----------------------------|
A|---------------------------------------------------------------------------|
E|---------------------------------------------------------------------------|

[Chorus]

e|-4-5-----------------------------------------------------------------------|
B|------9--7---7/9--9-10-9--7--9-9---------9-9/12-12-9--10-0-7-----7--5--/9--|
G|-----------9----------------------9---9-----------------------9------------|
D|---------------------------------------------------------------------------|
A|---------------------------------------------------------------------------|
E|---------------------------------------------------------------------------|

e|---------------------------------------------------------------------------|
B|-5-5-0--9999--7---7/9/7----------------------------------------------------|
G|----------------9-------9--------------------------------------------------|
D|---------------------------------------------------------------------------|
A|---------------------------------------------------------------------------|
E|---------------------------------------------------------------------------|

[Verse 2]

e|-----------------------------------------777---------7-7/9-----------------|
B|-9-10-9--7-7-9-7-5-0----00-10-9-7-9----------9-7-5---------99-7---7-9-7-9-5|
G|----------------------------------------------------------------9----------|
D|---------------------------------------------------------------------------|
A|---------------------------------------------------------------------------|
E|---------------------------------------------------------------------------|            
Submit corrections


        A Part Of Me lessons Hard to play? Try these video lessons and learn fast A Part Of Me lessons
        
↑ Back to top | Tablatures and chords for acoustic guitar and electric guitar, ukulele, drums are parodies/interpretations of the original songs. You may use it for private study, scholarship, research or language learning purposes only