» » »

Neck Deep - All Hype No Heart Bass

Artists:  A B C D E F G H I J K L M N O P Q R S T U V W X Y Z # 

All Hype No Heart Bass

(ver. 1) Click to play this song!
Neck Deep
 Rating:
4.2/5 (24 votes)

 All Hype No Heart  lessons Tabs too difficult? Try these video lessons and learn fast
 
                Tuning: Drop C

Intro
F|-------------------------------------------------------------------------|
C|-------------------------------------------------------------------------|
G|-------------------------------------------------------------------------|
C|-3~--------------------------3~---------------3----3----3----6--5--3--1--|

Verse
F|---------------------------------------------------------------------|
C|---------------------------------------------------------------------|
G|-----------------4-4-4-4-4-4-4-4-4-----------------------------------|
C|-3-3-3-3-3-3-3-3-------------------6-6-6-6-6-6-6-6-6-1-1-1-1-1-1-1-1-|

F|-----------------------------------------------------------------|
C|-----------------------------------------------------------------|
G|-----------------4-4-4-4-4-4-4-4-4-------------------------------|
C|-3-3-3-3-3-3-3-3-------------------6-6-6-6-6-6-6-6-6-6--5--3--1--|

F|---------------------------------------------------------------------|
C|---------------------------------------------------------------------|
G|-----------------4-4-4-4-4-4-4-4-4-----------------------------------|
C|-3-3-3-3-3-3-3-3-------------------6-6-6-6-6-6-6-6-6-1-1-1-1-1-1-1-1-|

F|-----------------------------------------------------------------------------|
C|-----------------------------------------------------------------------------|
G|-----------------4-4-4-4-4-4-4-4-4-------------------------------------------|
C|-3-3-3-3-3-3-3-3-------------------6-6-6-6-6-6-6-6-6-5--5--5--5--5--5--5--5--|

Breakdown
F|-----------------------------------|
C|-----------------------------------|
G|-----------------------------------| x 3
C|-3-3-3-3-3-3-3-3-3-3-3-3-3-3-3-3-3-|

F|---------------------------------------|
C|---------------------------------------|
G|---------------------------------------|
C|-3-3-3-3-3-3-3-3-3-3-3-3-5-5-5-5--3----|            
Submit corrections


        All Hype No Heart  lessons Hard to play? Try these video lessons and learn fast All Hype No Heart  lessons
        
↑ Back to top | Tablatures and chords for acoustic guitar and electric guitar, ukulele, drums are parodies/interpretations of the original songs. You may use it for private study, scholarship, research or language learning purposes only