» » »

Muse - Plug In Baby Bass

Artists:  A B C D E F G H I J K L M N O P Q R S T U V W X Y Z # 

Plug In Baby Bass

(ver. 2) Click to play this song!
Muse
 Rating:
4.3/5 (29 votes)

 Plug In Baby lessons Tabs too difficult? Try these video lessons and learn fast
 
                (Intro)
G|--------------------------------------------11-h12p-11|---------------|
D|------------11-------11-12------11-12-14--------------|14-12--11------|
A|----13--14-----13-14--------14------------------------|----------14---|
E|------------------------------------------------------|---------------|

G|----------------------------------11-h12p-11-|10-11------------11-13b--11-10-11-|
D|-----11-12----11-12-14-11-12-14--------------|------12-------12-----------------|
A|-----------14--------------------------------|-------12---12--------------------|
E|---------------------------------------------|---------13-----------------------|

G|-------------------------------------------11-h12p-11--|---------------|
D|-11-12---------11-------11-12-----11-12-14-------------|14-12--11-----|
A|------13--14-----13-14--------14-----------------------|----------14---|
G|-------------------------------------------------------------------------|

G|----------------------------------11-h12p|-11-10-11------------11-13b--11-10-11-|
D|-----11-12----11-12-14-11-12-14----------|----------12-------12-----------------|
A|-----------14----------------------------|-----------12---12--------------------|
E|-----------------------------------------|-------------13-----------------------|

G|--------------------------------------------11-h12p-11|----------------|
D|-11-12---------11-------11-12------11-12-14-----------|---14-12--11----|
A|------13--14-----13-14--------14----------------------|-----------14--|
E|------------------------------------------------------|----------------|

     Q     E.   S  E   E   E   E      Q     E.   S  E   E   E   E   
G|--------12------------------12--|--------12------------------12--|
D|------------------------12------|------------------------12------|
A|--10---------10-10--10----------|--10---------10-10--10----------|
E|--------------------------------|--------------------------------|


     Q     E.   S  E   E   E   E      Q     E.   S  E   E   E   E   
G|--------------------------------|--------------------------------|
D|--------12------------------12--|--------12------------------12--|
A|------------------------12------|------------------------12------|
E|--10---------10-10--10----------|--10---------10-10--10----------|


    Q     E.  S E  E   E   E     Q     E.  S E  E   E   E   
G|-------11---------------11--|-------11---------------11--|
D|--------------------11------|--------------------11------|
A|--9---------9-9--9----------|--9---------9-9--9----------|
E|----------------------------|----------------------------|


     Q     E.   S  E   E   E   E      Q     E.   S  E   E   E   E   
G|--------12------------------12--|--------12------------------12--|
D|------------------------12------|------------------------12------|
A|--10---------10-10--10----------|--10---------10-10--10----------|
E|--------------------------------|--------------------------------|


     Q     E.   S  E   E   E   E      Q     E.   S  E   E   E   E   
G|--------------------------------|--------------------------------|
D|--------12------------------12--|--------12------------------12--|
A|------------------------12------|------------------------12------|
E|--10---------10-10--10----------|--10---------10-10--10----------|


    Q     E.  S E  E   E   E     Q     E.  S E  E   E   E   
G|-------11---------------11--|-------11---------------11--|
D|--------------------11------|--------------------11------|
A|--9---------9-9--9----------|--9---------9-9--9----------|
E|----------------------------|----------------------------|


     Q     E.   S  E   E   E   E      Q     E.   S  E   E   E   E   
G|--------12------------------12--|--------12------------------12--|
D|------------------------12------|------------------------12------|
A|--10---------10-10--10----------|--10---------10-10--10----------|
E|--------------------------------|--------------------------------|


     Q     E.   S  E   E   E   E      Q     E.   S  E   E   E   E   
G|--------------------------------|--------------------------------|
D|--------12------------------12--|--------12------------------12--|
A|------------------------12------|------------------------12------|
E|--10---------10-10--10----------|--10---------10-10--10----------|


    E  E  E  E  E  E  E  E     E  E  E  E  E  E  E  E   
G|--------------------------|--------------------------|
D|--------------------------|--------------------------|
A|--9--9--9--9--9--9--9--9--|--9--9--9--9--9--9--9--9--|
E|--------------------------|--------------------------|


[Chorus 1]

(Bass)

     E   E   E   E   E   E   E   E      E   E   E   E   E   E   E  E   
G|----------------------------------|---------------------------------|
D|----------------------------------|------------------11--12--11--7--|
A|--10--10--10--10--10--10--10--10--|--10--10--10--10-----------------|
E|----------------------------------|---------------------------------|


    E  E  E  E  E  E  E  E     E  E  E  E  E   E   E  E   
G|--------------------------|----------------------------|
D|--9--9--9--9--9--9--9--9--|----------------------------|
A|--------------------------|--9--9--9--9--9--12--12--9--|
E|--------------------------|----------------------------|


     E   E   E   E   E   E   E   E      E   E   E   E   E   E   E  E   
G|----------------------------------|---------------------------------|
D|----------------------------------|------------------11--12--11--7--|
A|--10--10--10--10--10--10--10--10--|--10--10--10--10-----------------|
E|----------------------------------|---------------------------------|


    E  E  E  E  E  E  E  E     E  E  E  E  E  E  E  E   
G|--------------------------|--------------------------|
D|--9--9--9--9--9--9--9--9--|--------------------------|
A|--------------------------|--9--9--9--9--9--9--9--9--|
E|--------------------------|--------------------------|


     E   E   E   E   E   E   E   E      E   E   E   E   E   E   E  E   
G|----------------------------------|---------------------------------|
D|----------------------------------|------------------11--12--11--7--|
A|--10--10--10--10--10--10--10--10--|--10--10--10--10-----------------|
E|----------------------------------|---------------------------------|


    E  E  E  E  E  E  E  E     E  E  E  E  E   E   E  E   
G|--------------------------|----------------------------|
D|--9--9--9--9--9--9--9--9--|----------------------------|
A|--------------------------|--9--9--9--9--9--12--12--9--|
E|--------------------------|----------------------------|


     E   E   E   E   E   E   E   E      E   E   E   E   E   E   E   E   
G|----------------------------------|----------------------------------|
D|----------------------------------|----------------------------------|
A|--10--10--10--10--10--10--10--10--|--10--10--10--10--10--10--10--10--|
E|----------------------------------|----------------------------------|


     E   E   E   E   E   E   E   E      E   E   E   E   E   E   E   E   
G|----------------------------------|----------------------------------|
D|--12--12--12--12--12--12--12--12--|--12--12--12--12--12--12--12--12--|
A|----------------------------------|----------------------------------|
E|----------------------------------|----------------------------------|


[Pre-verse]

(Bass)

    Q     E.  S E  E   E   E     Q     E.  S E  E   E   E   
G|-------11---------------11--|-------11---------------11--|
D|--------------------11------|--------------------11------|
A|--9---------9-9--9----------|--9---------9-9--9----------|
E|----------------------------|----------------------------|


     Q     E.   S  E   E   E   E      Q     E.   S  E   E   E   E   
G|--------12------------------12--|--------12------------------12--|
D|------------------------12------|------------------------12------|
A|--10---------10-10--10----------|--10---------10-10--10----------|
E|--------------------------------|--------------------------------|


     Q     E.   S  E   E   E   E      Q     E.   S  E   E   E   E   
G|--------------------------------|--------------------------------|
D|--------12------------------12--|--------12------------------12--|
A|------------------------12------|------------------------12------|
E|--10---------10-10--10----------|--10---------10-10--10----------|


    Q     E.  S E  E   E   E     Q     E.  S E  E   E   E   
G|-------11---------------11--|-------11---------------11--|
D|--------------------11------|--------------------11------|
A|--9---------9-9--9----------|--9---------9-9--9----------|
E|----------------------------|----------------------------|


[Verse 2]
     Q     E.   S  E   E   E   E      Q     E.   S  E   E   E   E   
G|--------12------------------12--|--------12------------------12--|
D|------------------------12------|------------------------12------|
A|--10---------10-10--10----------|--10---------10-10--10----------|
E|--------------------------------|--------------------------------|


     Q     E.   S  E   E   E   E      Q     E.   S  E   E   E   E   
G|--------------------------------|--------------------------------|
D|--------12------------------12--|--------12------------------12--|
A|------------------------12------|------------------------12------|
E|--10---------10-10--10----------|--10---------10-10--10----------|

     Q     E.   S  E   E   E   E      Q     E.   S  E   E   E   E   
G|--------12------------------12--|--------12------------------12--|
D|------------------------12------|------------------------12------|
A|--10---------10-10--10----------|--10---------10-10--10----------|
E|--------------------------------|--------------------------------|


     Q     E.   S  E   E   E   E      Q     E.   S  E   E   E   E   
G|--------------------------------|--------------------------------|
D|--------12------------------12--|--------12------------------12--|
A|------------------------12------|------------------------12------|
E|--10---------10-10--10----------|--10---------10-10--10----------|


    Q     E.  S E  E   E   E     Q     E.  S E  E   E   E   
G|-------11---------------11--|-------11---------------11--|
D|--------------------11------|--------------------11------|
A|--9---------9-9--9----------|--9---------9-9--9----------|
E|----------------------------|----------------------------|


     Q     E.   S  E   E   E   E      Q     E.   S  E   E   E   E   
G|--------12------------------12--|--------12------------------12--|
D|------------------------12------|------------------------12------|
A|--10---------10-10--10----------|--10---------10-10--10----------|
E|--------------------------------|--------------------------------|


     Q     E.   S  E   E   E   E      Q     E.   S  E   E   E   E   
G|--------------------------------|--------------------------------|
D|--------12------------------12--|--------12------------------12--|
A|------------------------12------|------------------------12------|
E|--10---------10-10--10----------|--10---------10-10--10----------|


    Q     E.  S E  E   E   E     Q     E.  S E  E   E   E   
G|-------11---------------11--|-------11---------------11--|
D|--------------------11------|--------------------11------|
A|--9---------9-9--9----------|--9---------9-9--9----------|
E|----------------------------|----------------------------|


     Q     E.   S  E   E   E   E      Q     E.   S  E   E   E   E   
G|--------12------------------12--|--------12------------------12--|
D|------------------------12------|------------------------12------|
A|--10---------10-10--10----------|--10---------10-10--10----------|
E|--------------------------------|--------------------------------|


     Q     E.   S  E   E   E   E      Q     E.   S  E   E   E   E   
G|--------------------------------|--------------------------------|
D|--------12------------------12--|--------12------------------12--|
A|------------------------12------|------------------------12------|
E|--10---------10-10--10----------|--10---------10-10--10----------|


    E  E  E  E  E  E  E  E     E  E  E  E  E  E  E  E   
G|--------------------------|--------------------------|
D|--------------------------|--------------------------|
A|--9--9--9--9--9--9--9--9--|--9--9--9--9--9--9--9--9--|
E|--------------------------|--------------------------|

[Chorus 1]
(Bass)
     E   E   E   E   E   E   E   E      E   E   E   E   E   E   E  E   
G|----------------------------------|---------------------------------|
D|----------------------------------|------------------11--12--11--7--|
A|--10--10--10--10--10--10--10--10--|--10--10--10--10-----------------|
E|----------------------------------|---------------------------------|


    E  E  E  E  E  E  E  E     E  E  E  E  E   E   E  E   
G|--------------------------|----------------------------|
D|--9--9--9--9--9--9--9--9--|----------------------------|
A|--------------------------|--9--9--9--9--9--12--12--9--|
E|--------------------------|----------------------------|


     E   E   E   E   E   E   E   E      E   E   E   E   E   E   E  E   
G|----------------------------------|---------------------------------|
D|----------------------------------|------------------11--12--11--7--|
A|--10--10--10--10--10--10--10--10--|--10--10--10--10-----------------|
E|----------------------------------|---------------------------------|


    E  E  E  E  E  E  E  E     E  E  E  E  E  E  E  E   
G|--------------------------|--------------------------|
D|--9--9--9--9--9--9--9--9--|--------------------------|
A|--------------------------|--9--9--9--9--9--9--9--9--|
E|--------------------------|--------------------------|


     E   E   E   E   E   E   E   E      E   E   E   E   E   E   E  E   
G|----------------------------------|---------------------------------|
D|----------------------------------|------------------11--12--11--7--|
A|--10--10--10--10--10--10--10--10--|--10--10--10--10-----------------|
E|----------------------------------|---------------------------------|


    E  E  E  E  E  E  E  E     E  E  E  E  E   E   E  E   
G|--------------------------|----------------------------|
D|--9--9--9--9--9--9--9--9--|----------------------------|
A|--------------------------|--9--9--9--9--9--12--12--9--|
E|--------------------------|----------------------------|


     E   E   E   E   E   E   E   E      E   E   E   E   E   E   E   E   
G|----------------------------------|----------------------------------|
D|----------------------------------|----------------------------------|
A|--10--10--10--10--10--10--10--10--|--10--10--10--10--10--10--10--10--|
E|----------------------------------|----------------------------------|


     E   E   E   E   E   E   E   E      E   E   E   E   E   E   E   E   
G|----------------------------------|----------------------------------|
D|--12--12--12--12--12--12--12--12--|--12--12--12--12--12--12--12--12--|
A|----------------------------------|----------------------------------|
E|----------------------------------|----------------------------------|




[Chorus 2]

(Bass)

    E  E  E  E  E  E  E  E     E  E  E  E  E  E  E  E   
G|--------------------------|--------------------------|
D|--------------------------|--------------------------|
A|--9--9--9--9--9--9--9--9--|--9--9--9--9--9--9--9--9--|
E|--------------------------|--------------------------|


     E   E   E   E   E   E   E   E      E   E   E   E   E   E   E   E   
G|----------------------------------|----------------------------------|
D|----------------------------------|----------------------------------|
A|--10--10--10--10--10--10--10--10--|--10--10--10--10--10--10--10--10--|
E|----------------------------------|----------------------------------|


     E   E   E   E   E   E   E   E      E   E   E   E   E   E   E   E   
G|----------------------------------|----------------------------------|
D|----------------------------------|----------------------------------|
A|----------------------------------|----------------------------------|
E|--10--10--10--10--10--10--10--10--|--10--10--10--10--10--10--10--10--|


    E  E  E  E  E  E  E  E     E  E  E  E  E  E  E  E   
G|--------------------------|--------------------------|
D|--------------------------|--------------------------|
A|--9--9--9--9--9--9--9--9--|--9--9--9--9--9--9--9--9--|
E|--------------------------|--------------------------|


     E   E   E   E   E   E   E   E      E   E   E   E   E   E   E   E   
G|----------------------------------|----------------------------------|
D|----------------------------------|----------------------------------|
A|--10--10--10--10--10--10--10--10--|--10--10--10--10--10--10--10--10--|
E|----------------------------------|----------------------------------|


     E   E   E   E   E   E   E   E      E   E   E   E   E   E   E   E   
G|----------------------------------|----------------------------------|
D|----------------------------------|----------------------------------|
A|----------------------------------|----------------------------------|
E|--10--10--10--10--10--10--10--10--|--10--10--10--10--10--10--10--10--|

            
Submit corrections


        Plug In Baby lessons Hard to play? Try these video lessons and learn fast Plug In Baby lessons
        
↑ Back to top | Tablatures and chords for acoustic guitar and electric guitar, ukulele, drums are parodies/interpretations of the original songs. You may use it for private study, scholarship, research or language learning purposes only