Home » M » Muse »

Muse - Plug In Baby Bass

Artists:  A B C D E F G H I J K L M N O P Q R S T U V W X Y Z # 

Plug In Baby Bass

(ver. 1) Click to play this song!
Muse
 Rating:
4/5 (4 votes)
                Some of you are just plain stupid, hasn’t anyone seen them live?! He plays it all at the top of the neck, here is the absolute 100% correct way to play this, I’m sure because I must have watched it a thousand times.  I know you can work out the rhythm and the order, so without further ado, here it is:

VERSE

G-------------------------------------------------------------11------------11----11------------11-
D----12----------------12--------12-----------------12---------------11--------------------11----
A-------------------12----------------------------10------9----9-9-9----------9-----9-9-9--------
E-10----10-10-10-----------10-----10-10-10-----------------------------------------------------

G-----12-----------------12------12-----------------12-
D---------------------12--------------------------12-----
A-10-----10-10-10----------10-----10-10-10---------
E----------------------------------------------------------

BRIDGE

G-------------------------------------------
D-------------------------------------------
A-9-9-9-9-9-9-9-9-9-9-9-9-9-9-9-9---
E-------------------------------------------

CHORUS

G-----------------------------------------------------------------------------------------------------
D------------------------------------------------11-12-11---9-9-9-9-9-9-9-9--------------------
A-10-10-10-10-10-10-10-10-10-10-10-10-----------10-------------------9-9-9-9-7-9-9-9--
E-----------------------------------------------------------------------------------------------------
            
Submit corrections

↑ Back to top | Tablatures and chords for acoustic guitar and electric guitar, ukulele, drums are parodies/interpretations of the original songs. You may use it for private study, scholarship, research or language learning purposes only