Home » M » Muse »

Muse - Plug In Baby Ukulele

Artists:  A B C D E F G H I J K L M N O P Q R S T U V W X Y Z # 

Plug In Baby Ukulele

(ver. 1) Click to play this song!
Muse
 Rating:
4.4/5 (5 votes)
                [Chords]
     F#     G      D    F#(b5) F#aug
A |--1------2------0------1------1----|
E |--2------3------2----==2------2----|
C |--1------2------2----==0------2----|
G |--3------0------2----==3------3----|



[Intro]
   
   F#
A |--------4--------4--5-------|--4-----5-----7-----9h-10p9-----7-------------------|
E |--6--7-----6--7--------7----|--------------------------------------10----9-------|
C |----------------------------|----------------------------------------------------|
G |----------------------------|----------------------------------------------------|


   G
   --------------------7-------|--------7-----9-----9h-10p9-----8-----9-----8-------|
   --7--9--10-7--9--10----9----|--10------------------------------------------------|
   ----------------------------|----------------------------------------------------|
   ----------------------------|----------------------------------------------------|
   
   D
   Let ring------------------|
   --9-----------------9--11---|--11bu11bd9--8--9-------------|
   -----10----------10---------|-------------------10-9--10---|
   --------9--6--9-------------|------------------------------|
   ----------------------------|------------------------------|

  
   F#
   --------4--------4--5-------|--4-----5-----7-----9h-10p9-----7-------------------|
   --6--7-----6--7--------7----|--------------------------------------10----9-------|
   ----------------------------|----------------------------------------------------|
   ----------------------------|----------------------------------------------------|


   G
   --------------------7-------|--------7-----9-----9h-10p9-----8-----9-----8-------|
   --7--9--10-7--9--10----9----|--10------------------------------------------------|
   ----------------------------|----------------------------------------------------|
   ----------------------------|----------------------------------------------------|

   D
   Let ring------------------|
   --9-----------------9--11---|--11bu11bd9--8--9-------------|
   -----10----------10---------|-------------------10-9--10---|
   --------9--6--9-------------|------------------------------|
   ----------------------------|------------------------------|

   F#                                                                                G
   --------4--------4--5-------|--4-----5-----7-----9h-10p9-----7-------------------|-------|-------||
   --6--7-----6--7--------7----|--------------------------------------10----9-------|--7----|-(7)---||
   ----------------------------|----------------------------------------------------|-------|-------||
   ----------------------------|----------------------------------------------------|-------|-------||

[Verse]
                  |D  |D   |F#
 I've exposed your lies, baby
    |F#             |G            |G
 The underneath's no big surprise
         |D      |D        |F#
 Now it's time for changing
  |F#         |G
 And cleansing everything
|G               |D     |D
   To forget your love  

|F#     |F#(b5)

[Chorus]
|G   |G            |Bm
   My plug in baby
|F#          |G
 Crucifies my enemies
         |G              |Bm   |F#aug  F#
 When I'm tired of giving        
|G   |G            |Bm
   My plug in baby
     |F#              |G
 In unbroken virgin realities
   |G              |D   |D
 Is tired of living    

[Interlude]

   F#
   --------4--------4--5-------|--4-----5-----7-----9h-10p9-----7-------------------|
   --6--7-----6--7--------7----|--------------------------------------10----9-------|
   ----------------------------|----------------------------------------------------|
   ----------------------------|----------------------------------------------------|


   G
   --------------------7-------|--------7-----9-----9h-10p9-----8-----9-----8-------|
   --7--9--10-7--9--10----9----|--10------------------------------------------------|
   ----------------------------|----------------------------------------------------|
   ----------------------------|----------------------------------------------------|

   D
   Let ring------------------|
   --9-----------------9--11---|--11bu11bd9--8--9-------------|
   -----10----------10---------|-------------------10-9--10---|
   --------9--6--9-------------|------------------------------|
   ----------------------------|------------------------------|

   F#                                                                                G
   --------4--------4--5-------|--4-----5-----7-----9h-10p9-----7-------------------|-------|-------||
   --6--7-----6--7--------7----|--------------------------------------10----9-------|--7----|-(7)---||
   ----------------------------|----------------------------------------------------|-------|-------||
   ----------------------------|----------------------------------------------------|-------|-------||

[Verse]
          |D    |D
 Don't confuse
            |F#         |F#
 Baby you're gonna lose
         |G     |G      |D
 Your own game
|D     |F#      |F#
 Change me
            |G      
 Replace the envying
|G               |D     |D
   To forget your love  

[Chorus]
|G   |G            |Bm
   My plug in baby
|F#          |G
 Crucifies my enemies
         |G              |Bm   |F#aug  F#
 When I'm tired of giving        
|G   |G            |Bm
   My plug in baby
     |F#              |G
 In unbroken virgin realities
   |G              |D   |D
 Is tired of living   

[Outro] - with intro riff
|F# |F#                  |G       |G
       And I've seen your loving
            |D     |D   |F#
 But mine is gone
         |F#     |G       |G    |D    |D
 And I've been in trouble  

|F#     |F#     |G      |G
|D      |D      |F#     |F#
|G
            
Submit corrections

↑ Back to top | Tablatures and chords for acoustic guitar and electric guitar, ukulele, drums are parodies/interpretations of the original songs. You may use it for private study, scholarship, research or language learning purposes only