» » »

Motionless In White - Sinematic Tabs

Artists:  A B C D E F G H I J K L M N O P Q R S T U V W X Y Z # 

Sinematic Tabs

(ver. 5) Click to play this song!
Motionless In White
 Rating:
4.3/5 (29 votes)

 Sinematic  lessons Tabs too difficult? Try these video lessons and learn fast
 
                [Intro (GUITAR): 0:11 - 1:14]
D|---------------------------------------------------------------------------|
A|-10----------10----------10------9----------9----------9-------------------|
F|-----11--11------11--11------11-----11--11-----11--11-----11---------------|
C|---11--11--11--11--11--11--11--11-11--11--11-11--11--11-11--11-------------|
G|---------------------------------------------------------------------------|
C|---------------------------------------------------------------------------|

[Chorus #1 (BASS): 1:14 - 1:36}
F|---------------------------------------------------------------------------|
C|---------------------------------------------------------------------------|
G|----------------------------------------0-0-0-0-4-4-4-4--------------------|
C|-4-4-4-4-(x4)-2-2-2-2-(x4)-0-0-0-0-(x2)------------------4-4-4-4-(x4)------|

[Verse (GUITAR): 1:36 - 2:08]
D|---------------------------------------------------------------------------|
A|-10----------10----------10------9----------9----------9-------------------|
F|-----11--11------11--11------11-----11--11-----11--11-----11---------------|
C|---11--11--11--11--11--11--11--11-11--11--11-11--11--11-11--11-------------|
G|---------------------------------------------------------------------------|
A|---------------------------------------------------------------------------|

[Chorus #2 (BASS): 2:08 - 2:51}
F|---------------------------------------------------------------------------|
C|---------------------------------------------------------------------------|
G|----------------------------------------0-0-0-0----------------------------|
C|-4-4-4-4-(x4)-2-2-2-2-(x4)-0-0-0-0-(x2)---------6-6-6-6--4-4-4-4-(x4)------|(x2)

[Chorus #2 (GUITAR): 2:08 - 2:51]
*this is tremolo picked, and the bend is really slow and drawn out, listen for it
in the song.
D|---------------------------------------------------------------------------|
A|---------------------------------------------------------------------------|
F|-6--------6b7br------------------------------------------------------------|
C|---------------------------------------------------------------------------|
G|---------------------------------------------------------------------------|
C|---------------------------------------------------------------------------|

(Then, there is an interlude, no instruments are played.)

[Chorus #3 (BASS): 3:17 - 4:22}
F|---------------------------------------------------------------------------|
C|---------------------------------------------------------------------------|
G|----------------------------------------0-0-0-0----------------------------|
C|-4-4-4-4-(x4)-2-2-2-2-(x4)-0-0-0-0-(x2)---------6-6-6-6--4-4-4-4-(x4)------|(x3)

[Chorus #3 (GUITAR): 3:17 - 4:22]
*this is tremolo picked, and the bend is really slow and drawn out, listen for it
in the song.
D|---------------------------------------------------------------------------|
A|---------------------------------------------------------------------------|
F|-6--------6b7br------------------------------------------------------------|
C|---------------------------------------------------------------------------|
G|---------------------------------------------------------------------------|
C|---------------------------------------------------------------------------|

[Outro (BASS): 4:22 - 4:48]
F|---------------------------------------------------------------------------|
C|---------------------------------------------------------------------------|
G|---------------------------------------------------------------------------|
C|-4~------------------------------------------------------------------------|

[Outro (GUITAR): 4:22 - 4:48]
D|---------------------------------------------------------------------------|
A|---------------------------------------------------------------------------|
F|---------------------------------------------------------------------------|
C|-4~------------------------------------------------------------------------|
G|-4~------------------------------------------------------------------------|
C|-4~------------------------------------------------------------------------|
            
Submit corrections


        Sinematic  lessons Hard to play? Try these video lessons and learn fast Sinematic  lessons
        
↑ Back to top | Tablatures and chords for acoustic guitar and electric guitar, ukulele, drums are parodies/interpretations of the original songs. You may use it for private study, scholarship, research or language learning purposes only