» » »

Motionless In White - Reincarnate Bass

Artists:  A B C D E F G H I J K L M N O P Q R S T U V W X Y Z # 

Reincarnate Bass

(ver. 1) Click to play this song!
Motionless In White
 Rating:
3.4/5 (5 votes)

 Reincarnate  lessons Tabs too difficult? Try these video lessons and learn fast
 
                Tuning:Standard
Intro
G|---------------------------------------------------------------------------|
D|---------------------------------------------------------------------------|
A|--2322---------------------------------------------------------------------|
E|---------------------------------------------------------------------------|
Intro (cont.)
G|---------------------------------------------------------------------------|
D|---------------------------------------------------------------------------|
A|--2-2-2-5-0-2-3-2-3-5-3--(3x)-x0-x3----------------------------------------|2x
E|---------------------------------------------------------------------------|
Verse
G|---------------------------------------------------------------------------|
D|---------------------------------------------------------------------------|
A|-2-3-2-2-2-5-2-2-2-3-2-2-3-2-2-2-5-0-0-2-3-2-------------------------------|2x
E|---------------------------------------------------------------------------|
Chorus
G|---------------------------------------------------------------------------|
D|---------------------------------------------------------------------------|
A|------------------2-2-2-2-0-0-0-0------------------------------------------|3x
E|--3-3-3-3-3-3-3-3----------------------------------------------------------|
Chorus (cont.)
G|---------------------------------------------------------------------------|
D|---------------------------------------------------------------------------|
A|---------------------------------------------------------------------------|
E|--3-3-3-3-3-3-3-3-5-5-5-5-5-5-5-5------------------------------------------|
Break
G|---------------------------------------------------------------------------|
D|---------------------------------------------------------------------------|
A|--322----------------------------------------------------------------------|6x
E|---------------------------------------------------------------------------|
Bridge
G|---------------------------------------------------------------------------|
D|---------------------------------------------------------------------------|
A|--322-522-322-522-322-522-33-300-------------------------------------------|4x
E|---------------------------------------------------------------------------|
Bridge (cont.)
G|---------------------------------------------------------------------------|
D|---------------------------------------------------------------------------|
A|--222--222--222--222000----------------------------------------------------|4x
E|---------------------------------------------------------------------------|
Outro
G|---------------------------------------------------------------------------|
D|---------------------------------------------------------------------------|
A|--2322-2322-2322-2322-2322-2322-2322-0-0-0-333-2---------------------------|
E|---------------------------------------------------------------------------|            
Submit corrections


        Reincarnate  lessons Hard to play? Try these video lessons and learn fast Reincarnate  lessons
        
↑ Back to top | Tablatures and chords for acoustic guitar and electric guitar, ukulele, drums are parodies/interpretations of the original songs. You may use it for private study, scholarship, research or language learning purposes only