» » »

Motionless In White - Sinematic Tabs

Artists:  A B C D E F G H I J K L M N O P Q R S T U V W X Y Z # 

Sinematic Tabs

(ver. 1) Click to play this song!
Motionless In White
 Rating:
4/5 (4 votes)

 Sinematic  lessons Tabs too difficult? Try these video lessons and learn fast
 
                Tuning: Drop D

1:14
e|---------------------------------------------------------------------------|
B|---------------------------------------------------------------------------|
G|---------------------------------------------------------------------------|
D|---------------------------------------------------------------------------|
A|5------3------1-----4-----2-----0------------------------------------------|
D|5(x16)-3(x16)-1(x8)-4(x4)-2(x4)-0(x16)-------------------------------------|
Basically, for this one, you lightly strum the chords.

2:08
e|---------------------------------------------------------------------------|
B|---------------------------------------------------------------------------|
G|---------------------------------------------------------------------------|
D|5------3------1-----4-----2-----0------------------------------------------|
A|5------3------1-----4-----2-----0------------------------------------------|
D|5(x16)-3(x16)-1(x8)-4(x4)-2(x4)-0(x16)-------------------------------------|(x2)
(Now heavily strum the chords.)

3:17
e|---------------------------------------------------------------------------|
B|---------------------------------------------------------------------------|
G|---------------------------------------------------------------------------|
D|5------3------1-----4-----2-----0------------------------------------------|
A|5------3------1-----4-----2-----0------------------------------------------|
D|5(x16)-3(x16)-1(x8)-4(x4)-2(x4)-0(x16)-------------------------------------|
Again, heavily strumming the chords.
After 3:17, repeat the riff until the song ends at 4:12, then let the last one ring. 
(the last 000 chord)            
Submit corrections


        Sinematic  lessons Hard to play? Try these video lessons and learn fast Sinematic  lessons
        
↑ Back to top | Tablatures and chords for acoustic guitar and electric guitar, ukulele, drums are parodies/interpretations of the original songs. You may use it for private study, scholarship, research or language learning purposes only