» » »

Motionless In White - Reincarnate Tabs

Artists:  A B C D E F G H I J K L M N O P Q R S T U V W X Y Z # 

Reincarnate Tabs

(ver. 1) Click to play this song!
Motionless In White
 Rating:
4.1/5 (20 votes)

 Reincarnate  lessons Tabs too difficult? Try these video lessons and learn fast
 
                Tuning: Drop A

(Intro)

|-----------------------------------------------------------------------------------|
|-----------------------------------------------------------------------------------|
|-----------------------------------------------------------------------------------|
|----------5---------------------5---------------------5----------------------------|
|2-3-2-2-2---2-2-3-2-0-2-3-2-2-2---2-2-4-3-0-2-3-2-2-2---2-2-3-2-0-2-3-2-2-2-0-0-3-3|
|2-3-2-2-2---2-2-3-2-0-2-3-2-2-2---2-2-4-3-0-2-3-2-2-2---2-2-3-2-0-2-3-2-2-2-0-0-3-3|

|-----------------------------------------------------------------------------------|
|-----------------------------------------------------------------------------------|
|-----------------------------------------------------------------------------------|
|----------5---------------------5-----------------9---5----------------------------|
|2-3-2-2-2---2-2-3-2-0-2-3-2-2-2---2-2-4-3-0-2-3-2---2---2-2-3-2-0-2-3-2-2-2-0-0-3-3|
|2-3-2-2-2---2-2-3-2-0-2-3-2-2-2---2-2-4-3-0-2-3-2---2---2-2-3-2-0-2-3-2-2-2-0-0-3-3|

(Verse)

You pull the trigger just for fun
Forgetting I'm a loaded gun

|-----------------------------------------------------------------------------------|
|-----------------------------------------------------------------------------------|
|-----------------------------------------------------------------------------------|
|----------5---------------------5---------------------5----------------------------|
|2-3-2-2-2---2-2-3-2-0-2-3-2-2-2---2-2-4-3-0-2-3-2-2-2---2-2-3-2-0-2-3-2-2-2-0-0-3-3|
|2-3-2-2-2---2-2-3-2-0-2-3-2-2-2---2-2-4-3-0-2-3-2-2-2---2-2-3-2-0-2-3-2-2-2-0-0-3-3|
 x x x x x x x x x x x x x x x x x x x x x x x x x x x x x x x x x x x x x x x x x x

(Chorus)

|---------------------------|
|---------------------------|
|5---5-5-5-5-5---------7-7-7|
|5---5-5-5-5-5---------7-7-7|(x3)
|3---3-3-3-3-3-2---2-2-5-5-5|
|--------------2---2-2------|

|----------------------------|
|----------------------------|
|5---5-5-5-5-5--7---7-7-7-7-7|
|5---5-5-5-5-5--7---7-7-7-7-7|
|3---3-3-3-3-3--5---5-5-5-5-5|
|----------------------------|

(Intro part again)

|-----------------------------------------------------------------------------------|
|-----------------------------------------------------------------------------------|
|-----------------------------------------------------------------------------------|
|----------5---------------------5---------------------5----------------------------|
|2-3-2-2-2---2-2-3-2-0-2-3-2-2-2---2-2-4-3-0-2-3-2-2-2---2-2-3-2-0-2-3-2-2-2-0-0-3-3|
|2-3-2-2-2---2-2-3-2-0-2-3-2-2-2---2-2-4-3-0-2-3-2-2-2---2-2-3-2-0-2-3-2-2-2-0-0-3-3|

(Verse)

You sit upon your throne of filth
Condemning what you haven't built

|-----------------------------------------------------------------------------------|
|-----------------------------------------------------------------------------------|
|-----------------------------------------------------------------------------------|
|----------5---------------------5---------------------5----------------------------|
|2-3-2-2-2---2-2-3-2-0-2-3-2-2-2---2-2-4-3-0-2-3-2-2-2---2-2-3-2-0-2-3-2-2-2-0-0-3-3|
|2-3-2-2-2---2-2-3-2-0-2-3-2-2-2---2-2-4-3-0-2-3-2-2-2---2-2-3-2-0-2-3-2-2-2-0-0-3-3|
 x x x x x x x x x x x x x x x x x x x x x x x x x x x x x x x x x x x x x x x x x x

(Chorus)

|---------------------------|
|---------------------------|
|5---5-5-5-5-5---------7-7-7|
|5---5-5-5-5-5---------7-7-7|(x3)
|3---3-3-3-3-3-2---2-2-5-5-5|
|--------------2---2-2------|

|----------------------------|
|----------------------------|
|5---5-5-5-5-5--7---7-7-7-7-7|
|5---5-5-5-5-5--7---7-7-7-7-7|
|3---3-3-3-3-3--5---5-5-5-5-5|
|----------------------------|

(The Break Part)

|----------------------------------------------------------------------------|
|----------------------------------------------------------------------------|
|----------------------------------------------------------------------------|
|----------------------------------------------------------------------------|
|3--2-2------------3--2-2-----------3--2-2-3--2-2-3--2-2-3--2-2-3--2-2-3--2-2|
|3--2-2------------3--2-2-----------3--2-2-3--2-2-3--2-2-3--2-2-3--2-2-3--2-2|

|-------------------------------------------------|
|-------------------------------------------------|
|-------------------------------------------------|(x2)
|-------------------------------------------------|
|2-2-2-3-2-2-2-2-2-3-2-2-2-2-2-3-2-2-3-3-3-0-0-0-0|
|3-2-2-2-2-2-3-2-2-2-2-2-3-2-2-2-2-2-3-3-3-0-0-0-0|

|-------------------------------------------|
|-------------------------------------------|
|-------------------------------------------|(x3)
|-------------------------------------------|
|2-2-2-3-2-2-2-2-3-2-2-2-2-3-2-3-3-3-0-0-0-0|
|2-3-2-2-2-2-3-2-2-2-2-3-2-2-2-3-3-3-0-0-0-0|

|-------------------------------|
|-------------------------------|
|---9------9------9-------------|
|-----9------9------9----x-x-x-x|
|2------2------2------2--x-x-x-x|
|2------2------2------2--x-x-x-x|

(Chorus)

Through hell, from grace
There's nothing left

|---------------------------|
|---------------------------|
|5---5-5-5-5-5---------7-7-7|
|5---5-5-5-5-5---------7-7-7|(x3)
|3---3-3-3-3-3-2---2-2-5-5-5|
|--------------2---2-2------|

|----------------------------|
|----------------------------|
|5---5-5-5-5-5--7---7-7-7-7-7|
|5---5-5-5-5-5--7---7-7-7-7-7|
|3---3-3-3-3-3--5---5-5-5-5-5|
|----------------------------|

|-------------------------|
|-------------------------|
|5---5-5-5-5---------7-7-7|
|5---5-5-5-5---------7-7-7|(x3)
|3---3-3-3-3-2---2-2-5-5-5|
|------------2---2-2------|

|-------------|
|-------------|
|5---5-5-5-5-7|
|5---5-5-5-5-7|
|3---3-3-3-3-5|
|-------------|

(Intro part again)

|-------------------------------------------------------------------------------------------|
|-------------------------------------------------------------------------------------------|
|-------------------------------------------------------------------------------------------|
|----------5---------------------5---------------------5------------------------------------|
|2-3-2-2-2---2-2-3-2-0-2-3-2-2-2---2-2-4-3-0-2-3-2-2-2---2-2-3-2-0-2-3-2-2-2-0-0-3-3-3-3-2-2|
|2-3-2-2-2---2-2-3-2-0-2-3-2-2-2---2-2-4-3-0-2-3-2-2-2---2-2-3-2-0-2-3-2-2-2-0-0-3-3-3-3-2-2|            
Submit corrections


        Reincarnate  lessons Hard to play? Try these video lessons and learn fast Reincarnate  lessons
        
↑ Back to top | Tablatures and chords for acoustic guitar and electric guitar, ukulele, drums are parodies/interpretations of the original songs. You may use it for private study, scholarship, research or language learning purposes only