» » »

Motionless In White - Dead As Fuck Tabs

Artists:  A B C D E F G H I J K L M N O P Q R S T U V W X Y Z # 

Dead As Fuck Tabs

(ver. 1) Click to play this song!
Motionless In White
 Rating:
4/5 (4 votes)

 Dead As Fuck  lessons Tabs too difficult? Try these video lessons and learn fast
 
                Tuning - Drop A.

h - Hammer on.
* - Palm mute.

Intro.

E---------------------------------------------------------------------------|
B---------------------------------------------------------------------------|
G---------------------------------------------------------------------------|
D---------------------------------------------------------------------------|
A-0-0-0-6-6-6-0-0-0-6-6-6-3-0-3h5-0-0-0-6-6-6-0-0-0-1-1-1-1-0-0-0-0-0-0-0-0-|
E-0-0-0-6-6-6-0-0-0-6-6-6-3-0-3h5-0-0-0-6-6-6-0-0-0-1-1-1-1-0-0-0-0-0-0-0-0-|
                                                            * * * * * * * *

Verse one.

E---------------------------|
B---------------------------|
G---------------------------|
D---------------------------|
A-0--0-0--0-0--0-0--3-0-3-0-|
E-0--0-0--0-0--0-0--3-0-3-0-|
  *  * *  * *  * *  * * * *

Chorus one.

E---------------------------------------------------------------------------|
B---------------------------------------------------------------------------|
G---------------------------------------------------------------------------|
D---------------------------------------------------------------------------|
A-0-0-0-6-6-6-0-0-0-6-6-6-3-0-3h5-0-0-0-6-6-6-0-0-0-1-1-1-1-0-0-0-0-0-0-0-0-|
E-0-0-0-6-6-6-0-0-0-6-6-6-3-0-3h5-0-0-0-6-6-6-0-0-0-1-1-1-1-0-0-0-0-0-0-0-0-|
                                                            * * * * * * * *

E---------------------------------------------------------------------------|
B---------------------------------------------------------------------------|
G---------------------------------------------------------------------------|
D---------------------------------------------------------------------------|
A-0-0-0-6-6-6-0-0-0-6-6-6-3-0-3h5-0-0-0-6-6-6-0-0-0-1-1-1-1-0-0-0-0-0-0-0-0-|
E-0-0-0-6-6-6-0-0-0-6-6-6-3-0-3h5-0-0-0-6-6-6-0-0-0-1-1-1-1-0-0-0-0-0-0-0-0-|
                                                            * * * * * * * *

E-----------------------------------------------------------------|
B-----------------------------------------------------------------|
G-----------------------------------------------------------------|
D-----------------------------------------------------------------|
A-0-0-0-6-6-6-0-0-0-6-6-6-3-0-3h5-6-6-6-6-6-6-5-5-5-5-5-5-1-1-1-1-|
E-0-0-0-6-6-6-0-0-0-6-6-6-3-0-3h5-6-6-6-6-6-6-5-5-5-5-5-5-1-1-1-1-|

E-----------------------------------------------------------------|
B-----------------------------------------------------------------|
G-----------------------------------------------------------------|
D-----------------------------------------------------------------|
A-0-0-0-6-6-6-0-0-0-6-6-6-3-0-3h5-6-6-6-6-6-6-5-5-5-5-5-5-1-1-1-1-|
E-0-0-0-6-6-6-0-0-0-6-6-6-3-0-3h5-6-6-6-6-6-6-5-5-5-5-5-5-1-1-1-1-|

Verse two.

E----------------------------------------|
B----------------------------------------|
G----------------------------------------|
D----------------------------------------|
A-0--0-0--0-0--0-0--3-0-3-0--0--0-0--0-0-|
E-0--0-0--0-0--0-0--3-0-3-0--0--0-0--0-0-|
  *  * *  * *  * *  * * * *  *  * *  * *

Chorus two.

E---------------------------------------------------------------------------|
B---------------------------------------------------------------------------|
G---------------------------------------------------------------------------|
D---------------------------------------------------------------------------|
A-0-0-0-6-6-6-0-0-0-6-6-6-3-0-3h5-0-0-0-6-6-6-0-0-0-1-1-1-1-0-0-0-0-0-0-0-0-|
E-0-0-0-6-6-6-0-0-0-6-6-6-3-0-3h5-0-0-0-6-6-6-0-0-0-1-1-1-1-0-0-0-0-0-0-0-0-|
                                                            * * * * * * * *

E---------------------------------------------------------------------------|
B---------------------------------------------------------------------------|
G---------------------------------------------------------------------------|
D---------------------------------------------------------------------------|
A---------------------------------------------------------------------------|
E-0-0-0-6-6-6-0-0-0-6-6-6-3-0-3h5-0-0-0-6-6-6-0-0-0-1-1-1-1-0-0-0-0-0-0-0-0-|
                                                            * * * * * * * *

Bridge.

E-----------------------------------------------------------------|
B-----------------------------------------------------------------|
G-----------------------------------------------------------------|
D-----------------------------------------------------------------|
A-2-2-2-2-2-2-2-2-3-3-3-3-3-3-3-3-4-4-4-4-4-4-4-4-5-5-5-5-5-5-5-5-|
E-2-2-2-2-2-2-2-2-3-3-3-3-3-3-3-3-4-4-4-4-4-4-4-4-5-5-5-5-5-5-5-5-|

Chorus three.

E---------------------------------------------------------------------------|
B---------------------------------------------------------------------------|
G---------------------------------------------------------------------------|
D---------------------------------------------------------------------------|
A-0-0-0-6-6-6-0-0-0-6-6-6-3-0-3h5-0-0-0-6-6-6-0-0-0-1-1-1-1-0-0-0-0-0-0-0-0-|
E-0-0-0-6-6-6-0-0-0-6-6-6-3-0-3h5-0-0-0-6-6-6-0-0-0-1-1-1-1-0-0-0-0-0-0-0-0-|
                                                            * * * * * * * *

E---------------------------------------------------------------------------|
B---------------------------------------------------------------------------|
G---------------------------------------------------------------------------|
D---------------------------------------------------------------------------|
A-0-0-0-6-6-6-0-0-0-6-6-6-3-0-3h5-0-0-0-6-6-6-0-0-0-1-1-1-1-0-0-0-0-0-0-0-0-|
E-0-0-0-6-6-6-0-0-0-6-6-6-3-0-3h5-0-0-0-6-6-6-0-0-0-1-1-1-1-0-0-0-0-0-0-0-0-|
                                                            * * * * * * * *

E-----------------------------------------------------------------|
B-----------------------------------------------------------------|
G-----------------------------------------------------------------|
D-----------------------------------------------------------------|
A-0-0-0-6-6-6-0-0-0-6-6-6-3-0-3h5-6-6-6-6-6-6-5-5-5-5-5-5-1-1-1-1-|
E-0-0-0-6-6-6-0-0-0-6-6-6-3-0-3h5-6-6-6-6-6-6-5-5-5-5-5-5-1-1-1-1-|

E-----------------------------------------------------------------|
B-----------------------------------------------------------------|
G-----------------------------------------------------------------|
D-----------------------------------------------------------------|
A-0-0-0-6-6-6-0-0-0-6-6-6-3-0-3h5-6-6-6-6-6-5-5-5-5-5-5-5-1-1-1-1-|
E-0-0-0-6-6-6-0-0-0-6-6-6-3-0-3h5-6-6-6-6-6-6-5-5-5-5-5-5-1-1-1-1-|

Structure.

Intro. (x1).
Verse one. (x2).
Chorus one. (x1).
Verse two. (x1).
Chorus two. (x1).
Bridge. (x1).
Chorus three. (x1).            
Submit corrections


        Dead As Fuck  lessons Hard to play? Try these video lessons and learn fast Dead As Fuck  lessons
        
↑ Back to top | Tablatures and chords for acoustic guitar and electric guitar, ukulele, drums are parodies/interpretations of the original songs. You may use it for private study, scholarship, research or language learning purposes only