» » »

Motionless In White - Sinematic Tabs

Artists:  A B C D E F G H I J K L M N O P Q R S T U V W X Y Z # 

Sinematic Tabs

(ver. 3) Click to play this song!
Motionless In White
 Rating:
4/5 (4 votes)

 Sinematic  lessons Tabs too difficult? Try these video lessons and learn fast
 
                INTRO
(0:00-0:20)

e|---------------------------------------------------------------1-----------|
B|---------1-----1-0-------------0-----------1-----1-0-----------------------|
G|-------0---0-------0---------0-----------0---0-------0---------------------|
D|-----2-------2-------2-----2-----------2-------2-------2-----2-------------|
A|---2-------------------2-3-----------2-------------------2-3---------------|
E|-0---------------------------------0---------------------------------------|

e|------------------------------------------------------------0--------------|
B|---------1-----1-0-------------0-----------1-----1-0--------0--------------|
G|-------0---0-------0---------0-----------0---0-------0------0 -------------|
D|-----2-------2-------2-----2-----------2-------2-------2----2--------------|
A|---2-------------------2-3-----------2-------------------2--2--------------|
E|-0---------------------------------0------------------------0--------------|

VERSE
(0:22-0:46)(Small pause before guitar starts again. The strumming pattern is
extremely easy, so just listen to the song to know when to play.)

e|-0-0-0-0-0-0-0-0---0-0-0-0-0-0-0-0-----------------------------------------|
B|-8-8-8-8-8-8-8-8---7-7-7-7-7-7-7-7-----------------------------------------|
G|-9-9-9-9-9-9-9-9---9-9-9-9-9-9-9-9-----------------------------------------|
D|-9-9-9-9-9-9-9-9---9-9-9-9-9-9-9-9-----------------------------------------| (x2)
A|-0-0-0-0-0-0-0-0---0-0-0-0-0-0-0-0-----------------------------------------|
E|-0-0-0-0-0-0-0-0---0-0-0-0-0-0-0-0-----------------------------------------|

PRE-CHORUS
(0:46-1:09)(Same chords as verse, just different strumming pattern, again
listen to the song to hear it.)

e|-0-0-0-0-0-0-0-0-0-0-0-0--0-0-0-0------------------------------------------|
B|-8-8-8-8-8-8-8-8-8-8-8-8--7-7-7-7------------------------------------------|
G|-9-9-9-9-9-9-9-9-9-9-9-9--9-9-9-9------------------------------------------|
D|-9-9-9-9-9-9-9-9-9-9-9-9--9-9-9-9------------------------------------------|(x4)
A|-0-0-0-0-0-0-0-0-0-0-0-0--0-0-0-0------------------------------------------|
E|-0-0-0-0-0-0-0-0-0-0-0-0--0-0-0-0------------------------------------------|

CHORUS
(1:09-1:30)  (The strumming pattern isn't really explainable, I just kinda
listened to the song and learned from that, so I will just down the chords.)

e|-0---0---0---3---3---------------------------------------------------------|
B|-0---0---1---3---3---------------------------------------------------------|
G|-2---7---0---0---2---------------------------------------------------------|
D|-2---7---2---0---0---------------------------------------------------------|
A|-2---5---3---2---0---------------------------------------------------------|
E|-0---0---0---3---2---------------------------------------------------------|

POST-CHORUS
(1:31-1:42)
e|---------------------------------------------------------0-----------------|
B|---------1-----1-0-------------0---------1----1-0--------0-----------------|
G|-------0---0-------0---------0---------0---0------0------0-----------------|
D|-----2-------2-------2-----2---------2-------2------2----2-----------------|
A|---2-------------------2-3---------2------------------2--2-----------------|
E|-0-------------------------------0-----------------------0-----------------|

VERSE 2
(1:42-1:55) (Same as verse 1 but only one time through.)

e|-0-0-0-0-0-0-0-0---0-0-0-0-0-0-0-0-----------------------------------------|
B|-8-8-8-8-8-8-8-8---7-7-7-7-7-7-7-7-----------------------------------------|
G|-9-9-9-9-9-9-9-9---9-9-9-9-9-9-9-9-----------------------------------------|
D|-9-9-9-9-9-9-9-9---9-9-9-9-9-9-9-9-----------------------------------------| 
A|-0-0-0-0-0-0-0-0---0-0-0-0-0-0-0-0-----------------------------------------|
E|-0-0-0-0-0-0-0-0---0-0-0-0-0-0-0-0-----------------------------------------|

PRE-CHORUS
(1:55-2:06)(Again, its the same as the first pre-chorus, except 2 times
through instead of 4)

e|-0-0-0-0-0-0-0-0-0-0-0-0--0-0-0-0------------------------------------------|
B|-8-8-8-8-8-8-8-8-8-8-8-8--7-7-7-7------------------------------------------|
G|-9-9-9-9-9-9-9-9-9-9-9-9--9-9-9-9------------------------------------------|
D|-9-9-9-9-9-9-9-9-9-9-9-9--9-9-9-9------------------------------------------|(x2)
A|-0-0-0-0-0-0-0-0-0-0-0-0--0-0-0-0------------------------------------------|
E|-0-0-0-0-0-0-0-0-0-0-0-0--0-0-0-0------------------------------------------|

CHORUS
(2:06-2:52(This chorus is the same, except it goes through 2 times and from 2:35-2:41
there is a short pause.)

e|-0---0---0---3---3---------------------------------------------------------|
B|-0---0---1---3---3---------------------------------------------------------|
G|-2---7---0---0---2---------------------------------------------------------|
D|-2---7---2---0---0---------------------------------------------------------|(x2)
A|-2---5---3---2---0---------------------------------------------------------|
E|-0---0---0---3---2---------------------------------------------------------|

BRIDGE
(2:52-3:15) (So in this part, it is also kind of hard to explain the strumming
pattern (I tried my best) so just listen to the song(: )


e|-0--0-0-0-0-0-0-0-0-0--0-0-0-0-0-0-0-0--3-3-3-3--3-3-3-3-------------------|
B|-0--0-0-0-0-0-0-0-0-0--0-0-0-0-0-0-0-0--3-3-3-3--3-3-3-3-------------------|
G|-0--9-9-7-9-7-9-7-5-4--5-5-5-5-5-5-5-5--0-0-0-0--2-2-2-2-------------------|
D|-2--9-9-7-9-7-9-7-5-4--5-5-5-5-5-5-5-5--0-0-0-0--0-0-0-0-------------------|(x2)
A|-2--7-7-5-7-5-7-5-3-2--3-3-3-3-3-3-3-3--2-2-2-2--0-0-0-0-------------------|
E|-0--0-0-0-0-0-0-0-0-0--0-0-0-0-0-0-0-0--3-3-3-3--2-2-2-2-------------------|


e|-0--0----------------------------------------------------------------------|
B|-0--0----------------------------------------------------------------------|
G|-0--0----------------------------------------------------------------------|
D|-2--2----------------------------------------------------------------------|
A|-2--2----------------------------------------------------------------------|
E|-0--0----------------------------------------------------------------------|

CHORUS
(3:21-4:05)(Same as the part from 2:06-2:52, except no pause)

e|-0---0---0---3---3---------------------------------------------------------|
B|-0---0---1---3---3---------------------------------------------------------|
G|-2---7---0---0---2---------------------------------------------------------|
D|-2---7---2---0---0---------------------------------------------------------|(x2)
A|-2---5---3---2---0---------------------------------------------------------|
E|-0---0---0---3---2---------------------------------------------------------|

OUTRO
(4:06-4:30) (The last 2 E minors at the end are strummed slowly, each string 
individually and the last one is held until end of song)

e|---------------------------0---0-------------------------------------------|
B|---------1-----1-0---------0---0-------------------------------------------|
G|-------0---0-------0-------0---0-------------------------------------------|
D|-----2-------2-------2-----2---2-------------------------------------------|
A|---2-------------------2---2---2-------------------------------------------|
E|-0-------------------------0---0-------------------------------------------|            
Submit corrections


        Sinematic  lessons Hard to play? Try these video lessons and learn fast Sinematic  lessons
        
↑ Back to top | Tablatures and chords for acoustic guitar and electric guitar, ukulele, drums are parodies/interpretations of the original songs. You may use it for private study, scholarship, research or language learning purposes only