» » »

Mayday Parade - Anywhere But Here Tabs

Artists:  A B C D E F G H I J K L M N O P Q R S T U V W X Y Z # 

Anywhere But Here Tabs

(ver. 3) Click to play this song!
Mayday Parade
 Rating:
4.3/5 (6 votes)

 Anywhere But Here lessons Tabs too difficult? Try these video lessons and learn fast
 
                By, Jakedaman9


Intro: 0:11

e|---------------7--4-5-4-0-4-5-4--------7---4-5-4-0-7-5-4-|
B|---------------------------------------------------------|
G|----------6--9---------------------6--9------------------|
D|9-9--9-9-------------------------------------------------|
A|9-9--9-9-------------------------------------------------|
D|9-9--9-9-------------------------------------------------|

e|--------7----4-5-4-0-4-5-4------7-----4-5-4-2-0-4~-|
B|---------------------------------------------------|
G|--6--9---------------------6--9--------------------|
D|---------------------------------------------------|
A|---------------------------------------------------|
D|---------------------------------------------------|

 Verse: 0:36
e|--9~--------5~--------9~--------5~-|
B|-----------------------------------|
G|-----------------------------------|
D|-----------------------------------|
A|-----------------------------------|
D|-----------------------------------|

Pre-Chorus: 0:48
e|--------------------------------|
B|--------------------------------|
G|--------------------------------|
D|-4-4--4-4--4--4-4--4-4--4--5-5~-|
A|-4-4--4-4--4--4-4--4-4--4--5-5~-|
D|-4-4--4-4--4--4-4--4-4--4--5-5~-|

Chorus: 0:54
e|-------------------------|-------------------------------|
B|-------------------------|-------------------------------|
G|-6-----------------4-----|--6-----------------4-----5----|
D|-6-x8--7-----2-----4-x8--|--6-x8--7-----2-----4-x8--5-x8-|
A|-4-----7-x8--2-x8--2-----|--4-----7-x8--2-x8--2-----3----|
D|-------7-----2-----------|--------7-----2----------------|

Post Chorus: 1:08
e|-------7---4-5-4-0-4-5-4-------7----4-5-4-0-7-5-4-|
B|--------------------------------------------------|
G|-6--9---------------------6--9--------------------|
D|--------------------------------------------------|
A|--------------------------------------------------|
D|--------------------------------------------------|

 Verse 2: 1:32
e|--9~--------5~--------9~--------5~-|
B|-----------------------------------|
G|-----------------------------------|
D|-----------------------------------|
A|-----------------------------------|
D|-----------------------------------|

Pre-Chorus: 1:43
e|--------------------------------|
B|--------------------------------|
G|--------------------------------|
D|-4-4--4-4--4--4-4--4-4--4--5-5~-|
A|-4-4--4-4--4--4-4--4-4--4--5-5~-|
D|-4-4--4-4--4--4-4--4-4--4--5-5~-|

Chorus: 1:49
e|-------------------------|-------------------------------|
B|-------------------------|-------------------------------|
G|-6-----------------4-----|--6-----------------4-----5----|
D|-6-x8--7-----2-----4-x8--|--6-x8--7-----2-----4-x8--5-x8-|
A|-4-----7-x8--2-x8--2-----|--4-----7-x8--2-x8--2-----3----|
D|-------7-----2-----------|--------7-----2----------------|

Post Chorus: 2:03
e|----------4-5-4-0-4-5-4-----------4~-|
B|-------7------------------------7----|
G|-6--9---------------------6--9-------|
D|-------------------------------------|
A|-------------------------------------|
D|-------------------------------------|

Breakdown: 2:09
e|--------------------------|
B|--------------------------|
G|-6~--8-----4~--5-6-4-2~---|
D|-6~--8-2~--4~--5-6-4-2~---|  x2
A|-4~--6-2~--2~--3-4-2-0~---|
D|-------2~-----------------|

Chorus: 2:38
e|-------------------------|-------------------------------|
B|-------------------------|-------------------------------|
G|-8-----------------6-----|--8-----------------6-----7----|
D|-8-x8--9-----4-----6-x8--|--8-x8--9-----4-----6-x8--7-x8-|
A|-6-----9-x8--4-x8--4-----|--6-----9-x8--4-x8--4-----5----|
D|-------9-----4-----------|--------9-----4----------------|

Outro: 2:53
e|-------9--6-7-6---6-7-6-------9----6-7-6---9-7-6--|
B|----------------6------------------------6--------|
G|-8--11------------------8--11---------------------|
D|--------------------------------------------------|
A|--------------------------------------------------|
D|--------------------------------------------------|

e|---------9---6-7-6---6-7-6------9-9----|
B|-----------------6------------------9~-|
G|--8--11--------------------------------|
D|---------------------------------------|
A|---------------------------------------|
D|---------------------------------------|

      The End


~- let it ring
            
Submit corrections


        Anywhere But Here lessons Hard to play? Try these video lessons and learn fast Anywhere But Here lessons
        
↑ Back to top | Tablatures and chords for acoustic guitar and electric guitar, ukulele, drums are parodies/interpretations of the original songs. You may use it for private study, scholarship, research or language learning purposes only