» » »

Mayday Parade - Just Out Of Reach Bass

Artists:  A B C D E F G H I J K L M N O P Q R S T U V W X Y Z # 

Just Out Of Reach Bass

(ver. 1) Click to play this song!
Mayday Parade
 Rating:
2.5/5 (25 votes)

 Just Out Of Reach  lessons Tabs too difficult? Try these video lessons and learn fast
 
                Chorus 1: 'Drop everything, come back to me?'
  1   2   3    1   2   3    1   2   3    1   2   3    
G|------------|------------|------------|------------|
D|------------|------------|------------|------------|
A|2---2-2---2-|2---2-2---2-|0---0-0---0-|0---0-0---0-|
D|------------|------------|------------|------------|

  1   2   3    1   2   3    1   2   3    1   2   3    
G|------------|------------|------------|------------|
D|------------|------------|------------|----2---4---|
A|------------|------------|------------|------------|
D|5---5-5-5-5-|5\----------|5---5-5-5-5-|5-5---------|

Rest 4 bars while guitar plays the riff, then come in with the lyrics

Verse 2: 'I'm fine and I can handle myself?'
  1   2   3    1   2   3    1   2   3    1   2   3    
G|------------|------------|------------|------------|
D|------------|------------|------------|------------|
A|------------|------------|2-2---2-2-2-|1-1---1-1-1-|
D|0-----------|0-----0-0-0-|------------|------------|

  1   2   3    1   2   3    1   2   3    1   2   3    
G|------------|------------|------------|------------|
D|------------|------------|------------|------------|
A|------------|------------|2-2---2-2-2-|1-1---1-1-1-|
D|0-0---0-0-0-|0-0---0-0-0-|------------|------------|

  1   2   3    1   2   3    1   2   3    1   2   3    
G|------------|------------|------------|------------|
D|------------|------------|------------|------------|
A|------------|------------|2-2---2-2---|1-1---1-1---|
D|0-0---0-0-0-|0-0---0-0-0-|------------|------------|

Chorus 2: 'Drop everything, come back to me?'
  1   2   3    1   2   3    1   2   3    1   2   3    
G|------------|------------|------------|------------|
D|------------|------------|------------|------------|
A|2---2-2---2-|2---2-2---2-|0---0-0---0-|0---0-0---0-|
D|------------|------------|------------|------------|

  1   2   3    1   2   3    1   2   3    1   2   3    
G|------------|------------|------------|------------|
D|------------|------------|------------|------------|
A|------------|------------|------------|----5---4---|
D|5---5-5-5-5-|5\----------|5---5-5-5-5-|5-5---------|

  1   2   3    1   2   3    1   2   3    1   2   3    
G|------------|------------|------------|------------|
D|------------|------------|------------|------------|
A|2---2-2---2-|2---2-2---2-|0---0-0---0-|0---0-0---0-|
D|------------|------------|------------|------------|

  1   2   3    1   2   3    1   2   3    1   2   3    
G|------------|------------|------------|------------|
D|------------|------------|------------|------------|
A|------------|------------|------------|------------|
D|5---5-5-5-5-|5\----------|5---5-5-5-5-|5-5-5-5-5-5-|

Post Chorus: 'When you talk about friends?'
  1   2   3    1   2   3    1   2   3    1   2   3    
G|------------|------------|------------|------------|
D|------------|------------|------------|------------|
A|2---2-2---2-|2---2-2---2-|0---0-0---0-|0---0-0---0-|
D|------------|------------|------------|------------|

  1   2   3    1   2   3    1   2   3    1   2   3    
G|------------|------------|------------|------------|
D|------------|------------|------------|------------|
A|------------|------------|0---0-0---0-|0---0-0---0-|
D|5---5-5---5-|5---5-5---5-|------------|------------|

  1   2   3    1   2   3    1   2   3    1   2   3    
G|------------|------------|------------|------------|
D|------------|------------|------------|------------|
A|2---2-2---2-|2---2-2---2-|0---0-0---0-|0---0-0---0-|
D|------------|------------|------------|------------|

  1   2   3    1   2   3    1   2   3    1   2   3    
G|------------|------------|------------|------------|
D|------------|------------|------------|------------|
A|------------|------------|------------|------------|
D|5---5-5---5-|5---5-5---5-|5---5-5-5-5-|5---5---5---|

Instrumental:
  1   2   3    1   2   3    1   2   3    1   2   3    
G|------------|------------|------------|------------|
D|------------|------------|------------|------------|
A|2-----------|------------|------------|------------|
D|------------|------------|------------|------------|

  1   2   3    1   2   3    1   2   3    1   2   3    
G|------------|------------|------------|------------|
D|------------|------------|------------|------------|
A|0-2-2-0-2-2-|0-2-2-0-2-2-|0-2-2-0-2-2-|0-2-2-0-2-2-|
D|------------|------------|------------|------------|

  1   2   3    1   2   3    1   2   3    1   2   3    
G|------------|------------|------------|------------|
D|------------|------------|------------|------------|
A|0-2-2-0-2-2-|0-2-2-0-2-2-|0-2-2-0-2-2-|0-2-2-0-2-2-|
D|------------|------------|------------|------------|

  1   2   3    1   2   3    1   2   3    1   2   3    
G|------------|------------|------------|------------|
D|------------|------------|------------|------------|
A|0-2-2-0-2-2-|0-2-2-0-2-2-|0-2-2-0-2-2-|0-2-2-0-----|
D|------------|------------|------------|--------4-2-|

  1   2   3    1   2   3    1   2   3    1   2   3    
G|------------|------------|------------|------------|
D|------------|------------|------------|------------|
A|2-2-2-2-2-2-|2-----------|0-0-0-0-0-0-|0-----------|
D|------------|------------|------------|------------|

  1   2   3    1   2   3    1   2   3    1   2   3    
G|------------|------------|------------|------------|
D|------------|------------|------------|------------|
A|------------|------------|0-0-0-0-0-0-|0---0-0-0---|
D|5-5-5-5-5-5-|5-----------|------------|------------|

  1   2   3    1   2   3    1   2   3    1   2   3    
G|------------|------------|------------|------------|
D|------------|------------|------------|------------|
A|2-2-2-2-2-2-|2-----------|0-0-0-0-0-0-|0-----------|
D|------------|------------|------------|------------|

  1   2   3    1   2   3    1   2   3    1   2   3    
G|------------|------------|------------|------------|
D|------------|------------|------------|------------|
A|------------|------------|------------|------------|
D|5-5-5-5-5-5-|5-----------|5-----------|------------|

Bridge: 'I don't mind?'
  1   2   3    1   2   3    1   2   3    1   2   3    
G|------------|------------|------------|------------|
D|------------|------------|------------|------------|
A|2---2-2---2-|2---2-2---2-|0---0-0---0-|0---0-0---0-|
D|------------|------------|------------|------------|

  1   2   3    1   2   3    1   2   3    1   2   3    
G|------------|------------|------------|------------|
D|------------|------------|------------|------------|
A|------------|------------|0---0-0---0-|0---0-0---0-|
D|5---5-5---5-|5---5-5---5-|------------|------------|

  1   2   3    1   2   3    1   2   3    1   2   3    
G|------------|------------|------------|------------|
D|------------|------------|------------|------------|
A|2---2-2---2-|2---2-2---2-|0---0-0---0-|0---0-0---0-|
D|------------|------------|------------|------------|

  1   2   3    1   2   3    1   2   3    1   2   3    
G|------------|------------|------------|------------|
D|------------|------------|------------|------------|
A|------------|------------|0---0-0---0-|0---0-0---0-|
D|5---5-5---5-|5---5-5---5-|------------|------------|

  1   2   3    1   2   3    1   2   3    1   2   3    
G|------------|------------|------------|------------|
D|------------|------------|------------|------------|
A|2---2-------|2---2-------|0---0-------|0---0-------|
D|------------|------------|------------|------------|

  1   2   3    1   2   3    1   2   3    1   2   3    
G|------------|------------|------------|------------|
D|------------|------------|------------|------------|
A|------------|------------|----0---0---|0---0---0---|
D|5---5-------|5---5-------|------------|------------|

  1   2   3    1   2   3    1   2   3    1   2   3    
G|------------|------------|------------|------------|
D|------------|------------|------------|------------|
A|2---2-------|2---2-------|----0---0---|0---0---0---|
D|------------|------------|------------|------------|

  1   2   3    1   2   3    1   2   3    1   2   3    
G|------------|------------|------------|------------|
D|------------|------------|------------|------------|
A|------------|------------|----0---0---|0---0---0---|
D|5---5-------|5---5-------|------------|------------|

  1   2   3    1   2   3    1   2   3    1   2   3    
G|------------|------------|------------|------------|
D|------------|------------|------------|------------|
A|2-----------|------------|------------|------------|
D|------------|------------|------------|------------|

Outro: No Bass            
Submit corrections


        Just Out Of Reach  lessons Hard to play? Try these video lessons and learn fast Just Out Of Reach  lessons
        
↑ Back to top | Tablatures and chords for acoustic guitar and electric guitar, ukulele, drums are parodies/interpretations of the original songs. You may use it for private study, scholarship, research or language learning purposes only