» » »

Mayday Parade - Jamie All Over Bass

Artists:  A B C D E F G H I J K L M N O P Q R S T U V W X Y Z # 

Jamie All Over Bass

(ver. 1) Click to play this song!
Mayday Parade
 Rating:
4/5 (4 votes)

 Jamie All Over lessons Tabs too difficult? Try these video lessons and learn fast
 
                Bassist: Jeremy Lenzo

Key:
~: Let Note Ring
/: Slide Up
\: Slide Down

Tuning: [Drop D flat - Db,Ab,Db,Gb] or [Drop C sharp - C#, G#, C#, F#]


Verse One: [Note: Come in at "We lost ourselves..."]
("I had a dream last night" ... "Spend the summer on the west coast")
Gb|------------------------|
Db|------------------------|
Ab|------------------------|
Db|-55-555-55~--55-555-55~-|

Gb|------------------------------------------------|
Db|------------------------------------------------|
Ab|-55-555-55~--44-444-44~-------------------------|
Db|-------------------------55-555-55~--55-555-55~-|


Pre-Chorus:
("Down and to the left" ... "All I ask")
Gb|-------------------------------------|
Db|-------------------------------------|
Ab|-22222222-44444444-55555555----------|
Db|----------------------------55555555-|

Gb|--------------------------------|
Db|--------------------------------|
Ab|-22222222-44444444-55555555-----|
Db|----------------------------5-5-|


Chorus:
("Hey please don't tell me" ... "The fondest of memories")
Gb|------------------------------------------------------------------------|
Db|------------------------------------------------------------------------|
Ab|-------------------------------------5-555555-33333333------------------|
Db|-00000000-00000000-55555555-5--5--55-------------------55555555-55555556| [x2]


Verse Two: [Note: Come in at "As the waves crashed..."]
("We made love on the ocean" ... "Not at least till I have to")
Gb|------------------------------------|
Db|------------------------------------|
Ab|-44-444-44~-------------------------|
Db|-------------55-555-55~--55-555-55~-|

Gb|------------------------------------------------|
Db|------------------------------------------------|
Ab|-55-555-55~--44-444-44~-------------------------|
Db|-------------------------55-555-55~--55-555-55~-|


Pre-Chorus:
("Down and to the left" ... "All I ask")
Gb|-------------------------------------|
Db|-------------------------------------|
Ab|-22222222-44444444-55555555----------|
Db|----------------------------55555555-|

Gb|--------------------------------|
Db|--------------------------------|
Ab|-22222222-44444444-55555555-----|
Db|----------------------------5-5-|


Chorus:
("Hey please don't tell me" ... "The fondest of memories")
Gb|------------------------------------------------------------------------|
Db|------------------------------------------------------------------------|
Ab|-------------------------------------5-555555-33333333------------------|
Db|-00000000-00000000-55555555-5--5--55-------------------55555555-55555556| [x2]


Bridge One: [Note: Put a slight bend on those ringing notes]
("Memories" ... "Memories")
Gb|-----------------------------------------------------------------|
Db|-----------------------------------------------------------------|
Ab|-22-222-200-000-0-------------22-222-200-000-0-------------------|
Db|-----------------5~-5~-5~-5~-5----------------5~-5~-5~--7~-7~-7~-|


Bridge Two:
("I had a dream last night" ... "Ourselves in the bright lights")
Gb|------------------------------------------------------|
Db|------------------------------------------------------|
Ab|-55555555-55555555-4444444-44444444-------------------|
Db|------------------------------------55555555-5~-5~-5~-|


Chorus:
("Hey please don't tell me" ... "The fondest of memories")
Gb|------------------------------------------------------------------------|
Db|------------------------------------------------------------------------|
Ab|-------------------------------------5-555555-33333333------------------|
Db|-00000000-00000000-55555555-5--5--55-------------------55555555-55555556| [x2]


Outro:
("We made love on the ocean" ... "Down and to the left")
Gb|---------------------------------------------------------------------|
Db|---------------------------------------------------------------------|
Ab|---------------------------------------------------------------------|
Db|-00-000-000-000-055-555-555-555-5/99-999-9\77-777-7\55-555-555-555~--| [x2]
            
Submit corrections


        Jamie All Over lessons Hard to play? Try these video lessons and learn fast Jamie All Over lessons
        
↑ Back to top | Tablatures and chords for acoustic guitar and electric guitar, ukulele, drums are parodies/interpretations of the original songs. You may use it for private study, scholarship, research or language learning purposes only