» » »

Mayday Parade - One Man Drinking Games Tabs

Artists:  A B C D E F G H I J K L M N O P Q R S T U V W X Y Z # 

One Man Drinking Games Tabs

(ver. 1) Click to play this song!
Mayday Parade
 Rating:
4/5 (4 votes)

 One Man Drinking Games lessons Tabs too difficult? Try these video lessons and learn fast
 
                basically played through out the whole song

intro verse
e---------5------------|-----------3--2----|
B-----3-----3-------3--|------3----3--3----|
G---0---0-----0---0----|----0---0----------|
D----------------------|-------------------|
A----------------------|-------------------|
E--3-------------------|---3---------------|


e-----------0-------------|------------3-2-------|
B------3----3--3--------3-|-------2--------3-----|
G----0---0-------0---0----|----0------0------0---|
D-------------------------|----------------------|
A--3----------------------|3---------------------|
E-------------------------|----------------------|


e----------0-----------|-----------2-------------|
B------3------3------3-|-----3--------3------3---|
G----0---0------0--0---|---0----0-------0--0-----|
D----------------------|-------------------------|
A----------------------|-------------------------|
E--0-------------------|-0-----------------------|


e------------3----------|-----------3---5---------|
B------3-------3-------3|------3----3---3---------|
G----0---0-------0---0--|----0---0--0---0---------|
D-----------------------|-----------x---x---------|
A--3--------------------|--3--------3---3---------|
E-----------------------|-------------------------|

interlude

e---3----0------------|-----------------------|
B---3----0------------|------3--3----3--------|
G---0----0let ring out|----0---0---0---0------|
D---x----2------------|----------------------|repeat throughout chords C2@Em
A---3----2------------|-----------------------|
E--------0------------|-----------------------|


e--3----2------|
B--3----3------|
G--0----0------|
D--x----x------|transition back into intro/verse
A--3----3------|
E--------------|


intro verse
e---------5------------|-----------3--2----|
B-----3-----3-------3--|------3----3--3----|
G---0---0-----0---0----|----0---0----------|
D----------------------|-------------------|
A----------------------|-------------------|
E--3-------------------|---3---------------|


interlude

e---3----0------------|-----------------------|
B---3----0------------|------3--3----3--------|
G---0----0let ring out|----0---0---0---0------|
D---x----2------------|----------------------|repeat throughout chords C2@Em
A---3----2------------|-----------------------|
E--------0------------|-----------------------|


e--3----2------|
B--3----3------|
G--0----0------|
D--x----x------|
A--3----3------|
E--------------|


e--------------|
B--3333333333--|
G--------------|
D--------------|trans. into distorted part
A--------------|
E--------------|



outro
guitar 1
e-----------------|
B-----------------|
G--5-----5--------|play till song ends\end on Em
D--5--2--5--2-----|
A--3--2--3--2-----|
E-----0-----0-----|

guitar 2
e--10--8--7--5---------9------|
B------------------7h8--------|
G-----------------------------|
D-----------------------------|play around with these notes
A-----------------------------|
E-----------------------------|
            
Submit corrections


        One Man Drinking Games lessons Hard to play? Try these video lessons and learn fast One Man Drinking Games lessons
        
↑ Back to top | Tablatures and chords for acoustic guitar and electric guitar, ukulele, drums are parodies/interpretations of the original songs. You may use it for private study, scholarship, research or language learning purposes only