» » »

Mayday Parade - Anywhere But Here Tabs

Artists:  A B C D E F G H I J K L M N O P Q R S T U V W X Y Z # 

Anywhere But Here Tabs

(ver. 2) Click to play this song!
Mayday Parade
 Rating:
3.8/5 (5 votes)

 Anywhere But Here lessons Tabs too difficult? Try these video lessons and learn fast
 
                ----------------------------------------------------------------------------
               ANYWHERE BUT HERE - Mayday Parade
----------------------------------------------------------------------------

Tuning: standard

     VERSE & INTERLUDE(played with lead)   CHORUS         ending
G|---6--2--2--4--------------------------6--2--2--4-------6--2--------------|
D|---6--2--2--4--------------------------6--2--2--4-------6--2--------------|
A|---4--2--0--2--------------------------4--0--0--2-------4--0--------------|
E|--------------------------------------------------------------------------|

       BRIDGE             KEY CHANGE     End
B|-----1--1-----------------------------------------------------------------|
G|--6--2-----6--4--2-----8--4-----6-----8--4--------------------------------|
D|--6--2--2--6--4--2-----8--4--4--6-----8--4--------------------------------|
A|--4-----3--4--2--0-----6--2--4--4-----6--2--------------------------------|
E|-----------------------------2--------------------------------------------|
                          LEAD
e|-------7----4/5/4---4/5/4-------7--4/5/4----7/5/4-----7---4/5/4----4/5/4--|
B|----5----5--------5----------5-----------5----------5---5-------5---------|
G|--6------------------------6----------------------6-----------------------|
D|--------------------------------------------------------------------------|
A|--------------------------------------------------------------------------|
E|--------------------------------------------------------------------------|

e|---4/5/4-------7---4/5/4--------------------------------------------------|
B|-5-------5---5---5-------5------------------------------------------------|
G|-----------6---------------4----------------------------------------------|
D|--------------------------------------------------------------------------|
A|--------------------------------------------------------------------------|
                      LEAD AFTER KEY CHANGE(ending)
e|------9----6/7/6---6/7/6-----9---6/7/6---9/7/6------9----6/7/6---6/7/6----|
B|----7---7--------7---------7---7-------7----------7---7--------7----------|
G|--8----------------------8----------------------8-------------------------|
D|--------------------------------------------------------------------------|
A|--------------------------------------------------------------------------|
E|--------------------------------------------------------------------------|

e|------9----6/7/6----------------------------------------------------------|
B|----7---7--------11--11--9------------------------------------------------|
G|--8-----------------------------------------------------------------------|
D|--------------------------------------------------------------------------|
A|--------------------------------------------------------------------------|
E|--------------------------------------------------------------------------|


| /  slide up                order:
| \  slide down               verse
| h  hammer-on                interlude/lead
| p  pull-off                 chorus
| ~  vibrato                  verse
| +  harmonic                 ending
                              chorus
| x  Mute note                interlude/lead
                              bridge
                              chorus
                              key change
                              end
            
Submit corrections


        Anywhere But Here lessons Hard to play? Try these video lessons and learn fast Anywhere But Here lessons
        
↑ Back to top | Tablatures and chords for acoustic guitar and electric guitar, ukulele, drums are parodies/interpretations of the original songs. You may use it for private study, scholarship, research or language learning purposes only