Home » M » Mayday Parade »

Mayday Parade - Anywhere But Here Bass

Artists:  A B C D E F G H I J K L M N O P Q R S T U V W X Y Z # 

Anywhere But Here Bass

(ver. 1) Click to play this song!
Mayday Parade
 Rating:
3.7/5 (6 votes)
                Mayday Parade - Anywhere But Here 2009!

Intro:
G|-------------------------------------------------|
D|-------------------------------------------------|
A|-------------------------------------------------|
E|-9~---0~---5~---7~---9~---0~---5~---7~-77-77-----|

Intro 2:

G|---------------------------------------|
D|---------------------------------------|
A|---------------------------------------|
E|9-9999999-0-0000000-5-5555555-7-777777-|

G|---------------------------------------|
D|---------------------------------------|
A|---------------------------------------|
E|9-9999999-0-0000000-5-5555555-7-777777-|


Verse: x3

G|-----------------------|
D|-----------------------|
A|-----------------------|
E|-9~---0~---5~---7~-----|
Pre Chorus: 0:46-0:51
G|----------------------------------|
D|----------------------------------|
A|----------------------------------|
E|-99-9-00-7-75-53-355537777--------|

Chorus: x2
G|-------------------------------------------------|
D|-------------------------------------------------|
A|-------------------------------------------------|
E|99999999-00000000-55555555-77777777--------------|

Post Chorus:
G|---------------------------------------|
D|---------------------------------------|
A|---------------------------------------|
E|9-9999999-0-0000000-5-5555555-7-777777-|

G|---------------------------------------|
D|---------------------------------------|
A|---------------------------------------|
E|9-9999999-0-0000000-5-5555555-7-777777-|


Verse: x3

G|-----------------------|
D|-----------------------|
A|-----------------------|
E|-9~---0~---5~---7~-----|
Pre Chorus:
G|----------------------------------|
D|----------------------------------|
A|----------------------------------|
E|-99-9-00-7-75-53-355537777--------|

Chorus: x2
G|-------------------------------------------------|
D|-------------------------------------------------|
A|-------------------------------------------------|
E|99999999-00000000-55555555-77777777--------------|

Post Chorus:
G|---------------------------------------|
D|---------------------------------------|
A|---------------------------------------|
E|9-9999999-0-0000000-5-5555555-7-777777-|

Bridge:
G|----------------------------------------------------|
D|----------------------------------------------------|
A|----------------------------------------------------|
E|9-8-7-6-7-5-4-5-6-5-3~-10-7-9-8-7-6-7-5-4-5-6-5-3~--|

Pre Chorus:

G|-----------------------|
D|-----------------------|
A|-----------------------|
E|-9~---0~---5~---7~-----|
Last Chorus: (DOWN FULL STEP) (11’S) x2
G|-------------------------------------------------|
D|-------------------------------------------------|
A|-------------------------------------------------|
E|1111111111111111-22222222-77777777-99999999------|

Little Riff in between full step down and normal chorus:
G|-------------------------------------------------|
D|-------------------------------------------------|
A|-------------------------------------------------|
E|9-8-7-6-7-888-9~---------------------------------|


Chorus: x2
G|-------------------------------------------------|
D|-------------------------------------------------|
A|-------------------------------------------------|
E|99999999-00000000-55555555-77777777--------------|

End:
G|----------------------------------|
D|----------------------------------|
A|----------------------------------|
E|-7-5-3-9~-------------------------|

I hope you enjoyed this tab, I worked hard on this and It sounds great to me. Comments 
be appreciated!
            
Submit corrections

↑ Back to top | Tablatures and chords for acoustic guitar and electric guitar, ukulele, drums are parodies/interpretations of the original songs. You may use it for private study, scholarship, research or language learning purposes only