Home » M » Mac Demarco »

Mac Demarco - Ode To Viceroy Tabs

Artists:  A B C D E F G H I J K L M N O P Q R S T U V W X Y Z # 

Ode To Viceroy Tabs

(ver. 2) Click to play this song!
Mac Demarco

e|-0w---------------------------------|
B|-0w---------------------------------|
G|-0w---------------------------------| x2
D|-2w---------------------------------|
A|-4w--4-4-4-4-4-4-4-4-4-4-4-4-4-4-4--|
E|------------------------------------|

e|-0w---------------------------------|
B|-0w---------------------------------|
G|-0w---------------------------------| x2
D|-2w---------------------------------|
A|-3w--3-3-3-3-3-3-3-3-3-3-3-3-3-3-3--|
E|------------------------------------|

Verse:
"Viceroy, early in the morning,
Just tryin' to let the sun in,
And open up my eyes,
Viceroy, as it's getting later,
Headin' for the corner,
Already runnin' dry"
 
e|------0--0-0-------0--0-0-------0--0-0-------0--0-0--|    \
B|------0--0-0-------0--0-0-------0--0-0-------0--0-0--|     \
G|------0--0-0-------0--0-0-------0--0-0-------0--0-0--| x1   \
D|------2--2-2-------2--2-2-------0--0-0-------3--3-3--|       \
A|-4-4--4--4-4--3-3--3--3-3-------2--2-2--5-5--5--5-5--|        |
E|---------------------------3-3--3--3-3---------------|        |
                                                                | x2
e|------0--0-0-------0--0-0--0w----|                            |
B|------0--0-0-------0--0-0--0w----|                            |
G|------0--0-0-------0--0-0--0w----|                           /
D|------2--2-2-------2--2-2--0w----|                          /
A|-4-4--4--4-4--3-3--3--3-3--2w----|                         /
E|---------------------------3w----|                        /

A 2nd guitar plays this lead:
e|-3----3----3----------------------3------3---------------------| \
B|---0----0-----0h3-3-3-3-3/5--0------0------0-------------------|  \
G|-------------------------------0-------0-----0----4-b5--5-br4--|   \
D|---------------------------------------------------------------|    \
A|---------------------------------------------------------------|     |
E|---------------------------------------------------------------|     |
                                                                       | x2
e|-3----3----3----------------------3------3---------------------|     |
B|---0----0-----0h3-3-3-3-3/5--0------0------0-------------------|     |
G|-------------------------------0-------0-----0w----------------|    /
D|---------------------------------------------------------------|   /
A|---------------------------------------------------------------|  /
E|---------------------------------------------------------------| /


Chorus:
"And oh, don't let me see you cryin'"
Guitar 1:
e|-3---3-3--2--2--0--0---5---5-7-5--2--2-2-2-2-2-2--|
B|-5---5-5--3--3--0--0---5---5-5-5--1--1-1-1-1-1-1--|
G|-4---4-4--4--4--0--0---5---5-5-5--2--2-2-2-2-2-2--|
D|-5---5-5--4--4--2--2---5---5-5-5--0--0-0-0-0-0-0--|
A|-3---3-3--2--2--2--2---3---3-3-3------------------|
E|----------------0--0------------------------------|

Guitar 2 plays this over the chords:
e|-3--0------3---------------------------------------------|
B|-------0h3--------3---15b17-15b17r15-13-12--12h13p12p10--|
G|--------------2/4----------------------------------------|
D|---------------------------------------------------------|
A|---------------------------------------------------------|
E|---------------------------------------------------------|

"'cause oh honey, I'll smoke you 'til I'm dyin'"
Guitar 1:
e|-3---3-3--2--2--0--0---5---5-7-5--10--10-10---7----7--5--5-5-5-5-5-5--|
B|-5---5-5--3--3--0--0---5---5-5-5--8---8--9----7----7--5--5-5-5-5-5-5--|
G|-4---4-4--4--4--0--0---5---5-5-5--9---9--9----7----7--5--5-5-5-5-5-5--|
D|-5---5-5--4--4--2--2---5---5-5-5--8---8--8----7----7--5--5-5-5-5-5-5--|
A|-3---3-3--2--2--2--2---3---3-3-3--10--10-10---11---11-7--7-7-7-7-7-7--|
E|----------------0--0--------------8---8--8----7----7--5--5-5-5-5-5-5--|

Guitar 2:
e|-3--0------3-----------------------------------------------------|
B|-------0h3--------3---15b17-15b17r15-13-12--12-13-12-10---12-----|
G|--------------2/4--------------------------------------------12--|
D|-----------------------------------------------------------------|
A|-----------------------------------------------------------------|
E|-----------------------------------------------------------------|


Verse:
"Viceroy, don't take me for a fool now,
I'm only tryin' to calm down,
Just tryin' to keep it cool,
Viceroy, as it's getting later,
Headin' for the corner,
I'm leavin' it to you"
With capo:
e|------0--0-0-------0--0-0-------0--0-0-------0--0-0--|    \
B|------0--0-0-------0--0-0-------0--0-0-------0--0-0--|     \
G|------0--0-0-------0--0-0-------0--0-0-------0--0-0--| x3   \
D|------2--2-2-------2--2-2-------0--0-0-------3--3-3--|       \
A|-4-4--4--4-4--3-3--3--3-3-------2--2-2--5-5--5--5-5--|        |
E|---------------------------3-3--3--3-3---------------|        |
                                                                | x2
e|------0--0-0-------0--0-0--0w----|                            |
B|------0--0-0-------0--0-0--0w----|                            |
G|------0--0-0-------0--0-0--0w----|                           /
D|------2--2-2-------2--2-2--0w----|                          /
A|-4-4--4--4-4--3-3--3--3-3--2w----|                         /
E|---------------------------3w----|                        /

A 0nd guitar plays this lead:
e|-3----3----3----------------------3------3---------------------| \
B|---0----0-----0h3-3-3-3-3/5--0------0------0-------------------|  \
G|-------------------------------0-------0-----0----4-b5--5-br4--|   \
D|---------------------------------------------------------------|    \
A|---------------------------------------------------------------|     |
E|---------------------------------------------------------------|     |
                                                                       | x2
e|-3----3----3----------------------3------3---------------------|     |
B|---0----0-----0h3-3-3-3-3/5--0------0------0-------------------|     |
G|-------------------------------0-------0-----0w----------------|    /
D|---------------------------------------------------------------|   /
A|---------------------------------------------------------------|  /
E|---------------------------------------------------------------| /


Chorus:
"And oh, don't let me see you cryin'"
Guitar 1:
e|-3---3-3--2--2--0--0---5---5-7-5--2--2-2-2-2-2-2--|
B|-5---5-5--3--3--0--0---5---5-5-5--1--1-1-1-1-1-1--|
G|-4---4-4--4--4--0--0---5---5-5-5--2--2-2-2-2-2-2--|
D|-5---5-5--4--4--2--2---5---5-5-5--0--0-0-0-0-0-0--|
A|-3---3-3--2--2--2--2---3---3-3-3------------------|
E|----------------0--0------------------------------|

Guitar 2 plays this over the chords:
e|-3--0------3---------------------------------------------|
B|-------0h3--------3---15b17-15b17r15-13-12--12h13p12p10--|
G|--------------2/4----------------------------------------|
D|---------------------------------------------------------|
A|---------------------------------------------------------|
E|---------------------------------------------------------|

"'cause oh honey, I'll smoke you 'til I'm dyin'"
Guitar 1:
e|-3---3-3--2--2--0--0---5---5-7-5--10--10-10---7----7--5--5-5-5-5-5-5--|
B|-5---5-5--3--3--0--0---5---5-5-5--8---8--9----7----7--5--5-5-5-5-5-5--|
G|-4---4-4--4--4--0--0---5---5-5-5--9---9--9----7----7--5--5-5-5-5-5-5--|
D|-5---5-5--4--4--2--2---5---5-5-5--8---8--8----7----7--5--5-5-5-5-5-5--|
A|-3---3-3--2--2--2--2---3---3-3-3--10--10-10---11---11-7--7-7-7-7-7-7--|
E|----------------0--0--------------8---8--8----7----7--5--5-5-5-5-5-5--|

Guitar 2:
e|-3--0------3--------------------------------------------------------------------------------------|
B|-------0h3--------3---15b17-15b17r15-13-12--12-13-12-10---12--------------------------------------|
G|--------------2/4--------------------------------------------12--12-12-12-12-12-12-12-12-12-12-12-|
D|--------------------------------------------------------------------------------------------------|
A|--------------------------------------------------------------------------------------------------|
E|--------------------------------------------------------------------------------------------------|


Outro solo:
e|-15-12----15-12-------12-----------------------------------------------------------------------|
B|-------15-------15-12----15-12----15-12-------12-----------------------------------------------|
G|-------------------------------14-------14-12----14-12----14-12-------12-----------------------|x12
D|-------------------------------------------------------14-------14-12----14-12----14-12--------|
A|-------------------------------------------------------------------------------14-------14-12--|
E|-----------------------------------------------------------------------------------------------|

Guitar 1 plays these chords:
e|-3--3--3--3--5--5-5--5-5-5--5-5--|
B|-3--3--5--5--7--7-7--7-7-7--7-7--|
G|-4--4--4--4--7--7-7--7-7-7--7-7--| x12
D|-5--5--5--5--7--7-7--7-7-7--7-7--|
A|-5--5--3--3--5--5-5--5-5-5--5-5--|
E|-3--3----------------------------|            
Submit corrections

↑ Back to top | Tablatures and chords for acoustic guitar and electric guitar, ukulele, drums are parodies/interpretations of the original songs. You may use it for private study, scholarship, research or language learning purposes only