Home » M » Mac Demarco »

Mac Demarco - Ode To Viceroy Tabs

Artists:  A B C D E F G H I J K L M N O P Q R S T U V W X Y Z # 

Ode To Viceroy Tabs

(ver. 4) Click to play this song!
Mac Demarco
        C#m7  . . . . . . . . . . . . . .       C#m7 . . . . . . . . . . . . . .
e|-------x--------------------------------------x--------------------------------------------|
B|-----^-0~~~~~~~~~~~~~~~~~~~~~~~~~~~~~~~-----^-0~~~~~~~~~~~~~~~~~~~~~~~~~~~~~~~-------------|
G|-----|-0~~~~~~~~~~~~~~~~~~~~~~~~~~~~~~~-----|-0~~~~~~~~~~~~~~~~~~~~~~~~~~~~~~~-------------|
D|-----|-2~~~~2-2-2-2-2-2-2-2-2-2-2-2-2-2-----|-2~~~~2-2-2-2-2-2-2-2-2-2-2-2-2-2-------------|
A|-----|-4~~~~4-4-4-4-4-4-4-4-4-4-4-4-4-4-----|-4~~~~4-4-4-4-4-4-4-4-4-4-4-4-4-4-------------|
E|-------x--------------------------------------x--------------------------------------------|  

       Cmaj7  . . . . . . . . . . . . . .      Cmaj7 . . . . . . . . . . . . . .
e|-------x--------------------------------------x--------------------------------------------|
B|-----^-0~~~~~~~~~~~~~~~~~~~~~~~~~~~~~~~-----^-0~~~~~~~~~~~~~~~~~~~~~~~~~~~~~~~-------------|
G|-----|-0~~~~~~~~~~~~~~~~~~~~~~~~~~~~~~~-----|-0~~~~~~~~~~~~~~~~~~~~~~~~~~~~~~~-------------|
D|-----|-2~~~~2-2-2-2-2-2-2-2-2-2-2-2-2-2-----|-2~~~~2-2-2-2-2-2-2-2-2-2-2-2-2-2-------------|
A|-----|-3~~~~3-3-3-3-3-3-3-3-3-3-3-3-3-3-----|-3~~~~3-3-3-3-3-3-3-3-3-3-3-3-3-3-------------|
E|-------x--------------------------------------x--------------------------------------------|

[Verse] Play around with different fingerings to get the high notes to ring out well.
         C#m7        Cmaj7      G                             C#m7     Cmaj7      G      
e|-------------3~~~~~~~~---3~~~~~~~--3~~~---------------------3--3----------3----------------|
B|----------------0~~~~~~~----0~~~~--0~~~-----3-3-3-3h5-0-----0--0-------------0-------------|
G|-----------------------------------0~~~---4--4-4-4------0---0--0---------------------------|
D|-------2-2---------2-2--------------------x-----------------2--2-----2-2-----------(twice)-|
A|-------4-4---------3-3--------2-2---------5-----------------4--4-----3-3-------(2-2-2-2)---|
E|------------------------------3-3----------------------------------------------(3-3-3-3)---|


[Chorus]
-        G~             Bm7                Em      Fmaj7          D7
e|----------------------1------------------0~~0----5~~5---5--7----2~~2-2h3h2----2~~----------|
B|----------------------3---------oh2 p 0--0~~0----5~~5-----------1~~1------1---1~~----------|
G|-------2~~2---3-2-----2---2 h 4----------0~~0----5~~5-----------2~~2-------2--2~~----------|
D|-------4~~4---0-0-----4------------------2~~2----3~~3-----------0--0----------0------------|
A|-------x--x---x-x-----2------------------2~~2----------------------------------------------|
E|-------3~~3---3-3------------------------0~~0----------------------------------------------|

                          Make a C shape and Slide down
         G~             Em7                Em      Fmaj7                EbAug     Bm7      Am7
e|-----------------------------------------0~~~~~--5~~5-----12---10--8--7  7h8p7--7--7-----5-|
B|--------------11-10---8------------------0~~~~~--5~~5-----------------8---------7----8---5-|
G|-------2~~2---7--7----7---------7--------4~~~~~--5~~5-----------------8---------7--------5-|
D|-------4~~4---9--9----9--7 h 9-----------5~~~~~--3~~3---------------------------7--------5-|
A|-------x~~x---7--7----7------------10----7~~~~~---------------------------------9--------7-|
E|-------3~~3------------------------------0~~~~~---------------------------------7--------5-|

[Solo] 
This is for a solo arrangement so it is lower, Do what you want to make it work.
your hand should be in the right spot to start it after the chorus
e|----------------------------------------------------------------------------|
B|-------8 p 5----5------------------------------------------------------ ----|
G|-------------7----7 p 4-----4-----------------------------------------------|
D|------------------------5-----7-5-----7--5--------0-------------------------|
A|-----------------------------------7--------7--2-----2--0-------------------|
E|------------------------------------------------------------3---------------|             
Submit corrections

↑ Back to top | Tablatures and chords for acoustic guitar and electric guitar, ukulele, drums are parodies/interpretations of the original songs. You may use it for private study, scholarship, research or language learning purposes only