Home » M » Mac Demarco »

Mac Demarco - Ode To Viceroy Bass

Artists:  A B C D E F G H I J K L M N O P Q R S T U V W X Y Z # 

Ode To Viceroy Bass

(ver. 1) Click to play this song!
Mac Demarco
-----------------------------------------------------------------
Ode to Viceroy – Mac DeMarco
-----------------------------------------------------------------
Tuning: Standard


Intro: (x1)

G|-----------------|
D|-----------------|
A|6-----6-6/-------|
E|-----------------| (x4)

G|-----------------|
D|-----------------|
A|5-----5-5/-------|
E|-----------------| (x4)

Verse: (x2)

G|----------------|----------------|----------------|----------------|
D|----------------|----------------|----------------|--------7-7-4---|
A|6-6---6-5-5---5-|--------7-7---7-|6-6---6-5-5---5-|--------------7-|
E|----------------|5-5---5---------|----------------|5-5---5---------|

G|----------------|----------------|----------------|----------------|
D|----------------|----------------|----------------|----------------|
A|6-6---6-5-5---5-|--------7-7---7-|6-6---6-5-5---5-|----------------|
E|----------------|5-5---5---------|----------------|5-5---5-5-5-5-5-|

Chorus: (x1)

G|----------------|----------------|----------------|----------------|
D|----------------|--------4-4-4-4-|----------------|----------------|
A|--------------5-|5-5-5-5---------|5-5-5-5-5-5-5-7-|7-7-7-7-7-7-7-7-|
E|5-5-5-5-5-5-5---|----------------|----------------|----------------|

G|----------------|----------------|----------------|----------------|
D|----------------|--------4-4-4-4-|----------------|----------------|
A|--------------5-|5-5-5-5---------|5-5-5-5-5-5-5-5-|5-5-5-5-5-5-5-4-|
E|5-5-5-5-5-5-5---|----------------|----------------|----------------|

G|----------------|----------------|
D|----------------|----------------|
A|4-4-4-4-4-4-4---|----------------|
E|--------------7-|7-7-7-7-7-7-7-7-|

Verse: (x1)

Chorus: (x1)

Outro: fade out

G|----------------|----------------|
D|----------------|----------------|
A|------4-5-6---5-|7-7---7-7-7---7-|
E|5-5-------------|----------------|



| /  slide up
| \  slide down
| h  hammer-on
| p  pull-off
| ~  vibrato
| +  harmonic
| x  Mute note
            
Submit corrections

↑ Back to top | Tablatures and chords for acoustic guitar and electric guitar, ukulele, drums are parodies/interpretations of the original songs. You may use it for private study, scholarship, research or language learning purposes only