Home » M » Mac Demarco »

Mac Demarco - My Kind Of Woman Bass

Artists:  A B C D E F G H I J K L M N O P Q R S T U V W X Y Z # 

My Kind Of Woman Bass

(ver. 1) Click to play this song!
Mac Demarco
 Rating:
4/5 (4 votes)
                -----------------------------------------------------------------
My Kind of Woman – Mac DeMarco
-----------------------------------------------------------------
Tuning: Standard


Intro: (x1)

G|----------------|
D|----------------|
A|9-9---9-9-9---9-|
E|----------------|

Verse: (x4)

G|----------------|----------------|----------------|----------------|
D|----------------|----------------|----------------|----------------|
A|9-9---9-7-7---7-|5-5---5-5-5---5-|5-5---5---------|----------------|
E|----------------|----------------|--------7-7---7-|5-5---5-5-5---5—|

Pre-Chorus: Intro (x1)

Chorus: (x4)

G|----------------|----------------|----------------|----------------|
D|----------------|----------------|----------------|----------------|
A|----------------|4-4---4-5-5---5-|----------------|----------------|
E|5-5---5-7-7---7-|----------------|7-7---7-7-7---7-|7-7---7-7-7---7-|

Break: Intro (x1)

Verse: (x4)

Pre-chorus: (x1)

Chorus: (x4)

Outro: (x2)

G|----------------|----------------|----------------|
D|----------------|----------------|----------------|
A|9-----9-9-------|9-----9-9-------|9---------------|
E|----------------|----------------|----------------|



| /  slide up
| \  slide down
| h  hammer-on
| p  pull-off
| ~  vibrato
| +  harmonic
| x  Mute note
            
Submit corrections

↑ Back to top | Tablatures and chords for acoustic guitar and electric guitar, ukulele, drums are parodies/interpretations of the original songs. You may use it for private study, scholarship, research or language learning purposes only