Home » M » Mac Demarco »

Mac Demarco - Goodbye Weekend Tabs

Artists:  A B C D E F G H I J K L M N O P Q R S T U V W X Y Z # 

Goodbye Weekend Tabs

(ver. 1) Click to play this song!
Mac Demarco
Tuning: Standard (EADGBe)

No Capo

Intro / Verse: Chords

  G    E7    Am7   D7 
e|3|---|0|---|0|---|2|
B|3|---|3|---|1|---|1|
G|0|---|1|---|0|---|2|
D|0|---|0|---|2|---|0|
A|2|---|2|---|0|---|x|
A|3|---|0|---|x|---|x|

Intro / Verse: Tab

e|------------------------|--------------------------|
B|--17----15--------------|--------------------------|
G|----16------------------|--14-----16---------------|
D|-----------14--12-14----|--------------------------|
A|------------------------|-----15-----17--15--17----|
E|------------------------|--------------------------|


Chorus: Chords

  G    F7    Am7   D7 
e|3|---|1|---|0|---|2|
B|3|---|1|---|1|---|1|
G|0|---|2|---|0|---|2|
D|0|---|1|---|2|---|0|
A|2|---|3|---|0|---|x|
A|3|---|1|---|x|---|x|

Chorus: Tab

e|------------------------|--------------------------|
B|------------------------|--------------------------|
G|------------------------|--------------------------|
D|----12----14---------14-|-16----16--19-19---14-16--|
A|-(12)-12-----12---------|----12----------12--------|
E|------------------------|--------------------------|

Solo: Chords

I would just play the chorus chords during the solo, i think that sounds best

Solo: Tab

e|------15-----------------------------------------------------------|
B|-15/17--17-15-17-15--15-------------------------------------16(/7)-|
G|-------------------16--16-14-16-17-16-14-12-12-14------------------|
D|-------------------------------------------------------------------|
A|--------------------------------------------------------------(14)-|
E|-------------------------------------------------------------------|

e|------15-------------------------------------------17b-17-15-15-17-|
B|-15/17--17-15-17-15--15-------------------------------------17-----|
G|-------------------16--16-14-16-17-16-14-12-12-14------------------|
D|-------------------------------------------------------------------|
A|-------------------------------------------------------------------|
E|-------------------------------------------------------------------|

e|------15-----------------------------------------------------------|
B|-15/17--17-15-17-15--15-------------------------------------16(/7)-|
G|-------------------16--16-14-16-17-16-14-12-12-14------------------|
D|-------------------------------------------------------------------|
A|--------------------------------------------------------------(14)-|
E|-------------------------------------------------------------------|

e|------15-----------------------------------------------------------|
B|-15/17--17-15-17-15--15-----------------------------15-15b-15b-15--|
G|-------------------16--16-14-16-17-16-14-12-12-14------------------|
D|-------------------------------------------------------------------|
A|-------------------------------------------------------------------|
E|-------------------------------------------------------------------|            
Submit corrections

↑ Back to top | Tablatures and chords for acoustic guitar and electric guitar, ukulele, drums are parodies/interpretations of the original songs. You may use it for private study, scholarship, research or language learning purposes only