» » »

Kings Of Leon - Frontier City Tabs

Artists:  A B C D E F G H I J K L M N O P Q R S T U V W X Y Z # 

Frontier City Tabs

(ver. 3) Click to play this song!
Kings Of Leon
 Rating:
4/5 (4 votes)

 Frontier City lessons Tabs too difficult? Try these video lessons and learn fast
 
                Hello right just want to make few thigs clear this is only calebs main rythem parts and 
will soon submit tabs for matts parts and also jared's bass parts :) enjoy it's my first 
so go easy on me :)


Intro & Chorus

|-------------------------------------------------|
|-------------------------------------------------|
|-------------------------------------------------|   THEN >
|---2-2-2-2---11-11-11-11---12-12-12-12---7-7-7-7-|
|---2-2-2-2---11-11-11-11---12-12-12-12---7-7-7-7-|
|---4-4-4-4---9--9--9--9----10-10-10-10---5-5-5-5-|

|--------------------------------------------|
|--------------------------------------------|
|--------------------------------------------|
|---2-2-2-2---11-11-11-11---12~--------------|
|---2-2-2-2---11-11-11-11---12~--------------|
|---4-4-4-4---9--9--9--9----10~--------------|


Caleb Rythem through verses P = pull off H = Hammer on

|--------------------------------------------------------------------|
|-------------------------------11P--9--9H---11--11-11-11------------|
|-------------------------------0----0--0----0---0--0--0-------------|
|----11P--9--9H---11--11-11-11---------------------------------------|
|----0----0--0----0---0--0--0----------------------------------------|
|--------------------------------------------------------------------|

Intro
Verse 1&2
Chorus
Verse 3
Chorus
solo ( For calebs part in matts solo its the chorus but payed witha diffrent rythem 
to song for help =] ) Hope it helps .
            
Submit corrections


        Frontier City lessons Hard to play? Try these video lessons and learn fast Frontier City lessons
        
↑ Back to top | Tablatures and chords for acoustic guitar and electric guitar, ukulele, drums are parodies/interpretations of the original songs. You may use it for private study, scholarship, research or language learning purposes only