Home » K » Kings Of Leon »

Kings Of Leon - Cold Desert Tabs

Artists:  A B C D E F G H I J K L M N O P Q R S T U V W X Y Z # 

Cold Desert Tabs

(ver. 1) Click to play this song!
Kings Of Leon
 Rating:
4/5 (4 votes)
                Kings Of Leon - Cold Desert
---------------------------

Drop D Tuning

These are the different parts of the song...they keep playin them on top of each 
need to listen to it carefully to know which part comes where!

on her electric using loops! so thanku jesspennertv!!! its the best cover ever...i kinda 
it better than the original!!!


Intro

E|---------------|-----------------|
B|---------------|-----------------|
G|---------------|-----------------|
D|-0-0-0-0---0-2-|-----------------|
A|---------4-----|-2-2-2-2-2-2-2-0-|
d|--0-0-0-0-0-0-0|--0-0-0-0-0-0-0--| x2

E|-----------------|------------------------|
B|-----------------|------------------------|
G|-----------------|------------------------|
D|-4-4-4-4-5-7-5-4-|-s9-9-9-9-11-12-11-9s11-|
A|-----------------|------------------------|
d|--0-0-0-0-0-0-0-0|---0-0-0-0--0--0--0----0| x2


Chords

E|---5---2---0---3---|
B|---5---2---2---3---|
G|---7---4---2---4---|
D|---7---4---2---5---|
A|---5---2---0-------|
d|---5---2---0-------|

Solo

E|-------------------------------------|
B|---------------------------17b19-15--|
G|-14b16----14b16----14b16-------------|
D|-------12-------11-------9-----------|
A|-------------------------------------|
d|-------------------------------------|


E|-------------------------------------------------|
B|-15-151515-151515-151517-12-121212-121212-12129-s|
G|-------------------------------------------------|
D|-------------------------------------------------|
A|-------------------------------------------------|
d|-------------------------------------------------|
            
Submit corrections

↑ Back to top | Tablatures and chords for acoustic guitar and electric guitar, ukulele, drums are parodies/interpretations of the original songs. You may use it for private study, scholarship, research or language learning purposes only