» » »

Kings Of Leon - Frontier City Bass

Artists:  A B C D E F G H I J K L M N O P Q R S T U V W X Y Z # 

Frontier City Bass

(ver. 1) Click to play this song!
Kings Of Leon
 Rating:
4/5 (4 votes)

 Frontier City lessons Tabs too difficult? Try these video lessons and learn fast
 
                Kings of Leon
Only By The Night B-side

Intro/Chorus
G|---------------------------------|
D|---------------------------------|
A|---------4-4-4-4-5-5-5-5---------|
E|-2-2-2-2-----------------5-5-5-5-|

G|---------------------------------|
D|---------------------------------|
A|---------4-4-4-4-5*--------------|
E|-2-2-2-2-------------------------|

G|---------------------------------|
D|---------------------------------|
A|---------------------------------|
E|-5*----5-5*---5-10----10-10*--12-|


Verse (play around with it a bit, since its a little bland)
G|---------------------------------|
D|---------------------------------|
A|---------------------------------|
E|-5*----5-5*----/10----10-10*-----|

G|---------------------------------|
D|---------------------------------|
A|---------------------------------|
E|-5*----5-5*---5-10*------10*-----|

Break/2nd Verse
G|-----------14------------------14----|
D|-----14/16----16-14------14/16----16-|
A|-12*----------------12*--------------|
E|-------------------------------------|

G|-----------14-----------------14-----|
D|-12*-14/16----16-14-12*-14/16----16--|
A|-------------------------------------|
E|-------------------------------------|

Outro/Solo
G|---------------------------------------|
D|.-------------------------------------.|
A|.----------444444444-555555555--------.|
E|-22222222---------------------55555555-|repeat
     t     t       t          t
G|-------------------------------------|
D|.--444---444---11-11-11---11-11-11---|
A|.------------------------------------|
E|-2---2-2---2/9--------9-9---------9--|
        t             t        t     t
G|----------------------------------------|
D|---12-12-12-----12-12-12----777---777--.|
A|---------------------------------------.|
E|-10--------10-10--------10/5---5-5---5/-|repeat
            
Submit corrections


        Frontier City lessons Hard to play? Try these video lessons and learn fast Frontier City lessons
        
↑ Back to top | Tablatures and chords for acoustic guitar and electric guitar, ukulele, drums are parodies/interpretations of the original songs. You may use it for private study, scholarship, research or language learning purposes only