» » »

Kings Of Leon - Comeback Story Tabs

Artists:  A B C D E F G H I J K L M N O P Q R S T U V W X Y Z # 

Comeback Story Tabs

(ver. 1) Click to play this song!
Kings Of Leon
 Rating:
3.4/5 (5 votes)

 Comeback Story lessons Tabs too difficult? Try these video lessons and learn fast
 
                This is my first tab, hope you like it. 

Tuning: Standard

Intro but also played throughout the song:

e|--------12--------------12---------|
B|-----14----14--------14----14------|
G|--14----------14--14----------14---|  x2
D|-----------------------------------|
A|-----------------------------------|
E|-----------------------------------|

e|--------12--------------12---------|
B|-----14----14--------14----14------|
G|--13----------13--13----------13---|  x2
D|-----------------------------------|
A|-----------------------------------|
E|-----------------------------------|  


Main Chorus:


"And I've got your shoes......"

e|-----------------------------------------------------------------------------------|     
B|----------------------------------------14-----17----14--12--17--------------------|
G|-------------------------------14-16-------13--------------14---13b----------------|  x2
D|-------------------14----14-16-----------------------------------------------------|        
A|-----------------------------------------------------------------------------------|
E|-----------------------------------------------------------------------------------|


End chorus:


e|-----------------------------------------------------------------------------------|     
B|----------------------------------------14-----17----14--12--17--------------------|
G|-------------------------------14-16-------13--------------14---13b----------------|  x3
D|-------------------14----14-16-----------------------------------------------------|        
A|-----------------------------------------------------------------------------------|
E|-----------------------------------------------------------------------------------|

e|---------------------------------------------------------------|
B|----------------------------------------14---------------------|
G|-------------------------------14-16-------13--17s18b----------|
D|-------------------14----14-16---------------------------------|      
A|---------------------------------------------------------------|
E|---------------------------------------------------------------| 
            
Submit corrections


        Comeback Story lessons Hard to play? Try these video lessons and learn fast Comeback Story lessons
        
↑ Back to top | Tablatures and chords for acoustic guitar and electric guitar, ukulele, drums are parodies/interpretations of the original songs. You may use it for private study, scholarship, research or language learning purposes only