Home » K » Kings Of Leon »

Kings Of Leon - Frontier City Tabs

Artists:  A B C D E F G H I J K L M N O P Q R S T U V W X Y Z # 

Frontier City Tabs

(ver. 1) Click to play this song!
Kings Of Leon
 Rating:
4/5 (4 votes)
                Hey I'm pretty sure I've got the intro for Matt and Caleb and also Caleb's bit for the verses. 
I would love for someone to tab the solo though. Enjoy!


(Intro - Lead)
|------------------------------------------------|
|--14-14-14-14-14-14-14-14-14/15-12---12--12-----|
|-----------------------------------11--11-------|
|------------------------------------------------|   
|------------------------------------------------|
|------------------------------------------------|

|------------------------------------------------|
|--14/15-12-14------14-12~-----------------------|
|------------------------------------------------|
|------------------------------------------------|
|------------------------------------------------|
|------------------------------------------------|


(Intro - Rhythm) 
|----------------------------------------------|
|----------------------------------------------|
|----------------------------------------------|   
|---2-2-2-2--11-11-11-11--12-12-12-12--7-7-7-7-|
|---2-2-2-2--11-11-11-11--12-12-12-12--7-7-7-7-|
|---4-4-4-4--9--9--9--9---10-10-10-10--5-5-5-5-|

|------------------------------------------|
|------------------------------------------|
|------------------------------------------|
|---2-2-2-2--11-11-11-11--12~--------------|
|---2-2-2-2--11-11-11-11--12~--------------|
|---4-4-4-4--9--9--9--9---10~--------------|


(Verse - Rhythm)
    
|--------------------------------------------------|
|--------------------------------------------------|
|--------------------------------------------------|
|---11p--9---9h11----11---11-11-11-----------------| x2
|---0----0---0-------0----0--0--0------------------|
|--------------------------------------------------|

|--------------------------------------------------|
|--------------------------------------------------|
|---11p--9---9h11----11---11-11-11-----------------|
|---0----0---0-------0----0--0--0------------------| x2
|--------------------------------------------------|
|--------------------------------------------------|


Then for the the rhythm guitar it's the same as the intro
            
Submit corrections

↑ Back to top | Tablatures and chords for acoustic guitar and electric guitar, ukulele, drums are parodies/interpretations of the original songs. You may use it for private study, scholarship, research or language learning purposes only