» » »

Kings Of Leon - Find Me Tabs

Artists:  A B C D E F G H I J K L M N O P Q R S T U V W X Y Z # 

Find Me Tabs

(ver. 3) Click to play this song!
Kings Of Leon
 Rating:
4.4/5 (7 votes)

 Find Me  lessons Tabs too difficult? Try these video lessons and learn fast
 
                [Intro]
e|---4---------4-------4---------0---------2-----0-----2-----0----------------------------|
B|-----5---7-----7-------5---7-----0---------0-----0-----0-------4---5--------------------|
G|-6-----6---6-------6-----6---6---------4-----4-----4-----4---4---4---4------------------|
D|----------------------------------------------------------------------------------------|(x2)
A|----------------------------------------------------------------------------------------|
E|----------------------------------------------------------------------------------------|

e|---4---------4-----4-----4-----0---------2-----0-----2-----0----------------------------|
B|-----5---7-----7-----7-----7---------------0-----0-----0-------4---5--------------------|
G|-6-----6---6-----6-----6-----6---------4-----4-----4-----4---4---4---4------------------|
D|----------------------------------------------------------------------------------------|
A|----------------------------------------------------------------------------------------|
E|----------------------------------------------------------------------------------------|

e|---4---------4-------4---------0---------2-----0-----2-----0----------------------------|
B|-----5---7-----7-------5---7-----0---------0-----0-----0-------4---5--------------------|
G|-6-----6---6-------6-----6---6---------4-----4-----4-----4---4---4---4------------------|
D|----------------------------------------------------------------------------------------|
A|----------------------------------------------------------------------------------------|
E|----------------------------------------------------------------------------------------|

e|---4---------4-----4-----4-----0---------2-----0-----2-----0----------------------------|
B|-----5---7-----7-----7-----7---------------0-----0-----0-------4---5--------------------|
G|-6-----6---6-----6-----6-----6---------4-----4-----4-----4---4---4---4------------------|(x2)
D|----------------------------------------------------------------------------------------|
D|----------------------------------------------------------------------------------------|
E|----------------------------------------------------------------------------------------|

[Verse]
See you in the Western sky
e|-0---0---0-0----0---0---0-0---------0-0-0--0-0-0--0-0-0--0-0-0--------------------------|
B|-0---5---0-0----0---5---0-0---------0-0-0--0-0-0--0-0-0--0-0-0--------------------------|
G|-6---6---8-8----6---6---8-8---------6-6-6--6-6-6--6-6-6--6-6-6--------------------------|
D|-7---6---9-9----7---6---9-9---------7-7-7--7-7-7--7-7-7--7-7-7--------------------------|
A|-7---4---9-9----7---4---9-9---------7-7-7--7-7-7--7-7-7--7-7-7--------------------------|
E|-5-------7-7----5-------7-7---------5-5-5--5-5-5--5-5-5--5-5-5--------------------------|

e|-0-0-0--0-0-0--0-0-0--0-0-0----0-0-0--0-0-0--0-0-0--0-0-0--0-0-0--0-0-0--0-0-0--0-0-0---|
B|-5-5-5--5-5-5--5-5-5--5-5-5----0-0-0--0-0-0--0-0-0--0-0-0--0-0-0--0-0-0--0-0-0--0-0-0---|
G|-6-6-6--6-6-6--6-6-6--6-6-6----8-8-8--8-8-8--8-8-8--8-8-8--8-8-8--8-8-8--8-8-8--8-8-8---|
D|-6-6-6--6-6-6--6-6-6--6-6-6----9-9-9--9-9-9--9-9-9--9-9-9--9-9-9--9-9-9--9-9-9--9-9-9---|
A|-4-4-4--4-4-4--4-4-4--4-4-4----9-9-9--9-9-9--9-9-9--9-9-9--9-9-9--9-9-9--9-9-9--9-9-9---|
E|-------------------------------7-7-7--7-7-7--7-7-7--7-7-7--7-7-7--7-7-7--7-7-7--7-7-7---|

[Chorus]
How did ya find me
e|---4---------4-------4---------0---------2-----0-----2-----0----------------------------|
B|-----5---7-----7-------5---7-----0---------0-----0-----0-------4---5--------------------|
G|-6-----6---6-------6-----6---6---------4-----4-----4-----4---4---4---4------------------|
D|----------------------------------------------------------------------------------------|
A|----------------------------------------------------------------------------------------|
E|----------------------------------------------------------------------------------------|

e|---4---------0-----0-----0-----0---------2-----0-----2-----0----------------------------|
B|-----5---7-----5-----5-----5---------------0-----0-----0-------4---5--------------------|
G|-6-----6---6-----6-----6-----6---------4-----4-----4-----4---4---4---4------------------|
D|----------------------------------------------------------------------------------------|
A|----------------------------------------------------------------------------------------|
E|----------------------------------------------------------------------------------------|

e|---4---------4-----4-----4-----0---------2-----0-----2-----0----------------------------|
B|-----5---7-----7-----7-----7---------------0-----0-----0-------4---5--------------------|
G|-6-----6---6-----6-----6-----6---------4-----4-----4-----4---4---4---4------------------|
D|----------------------------------------------------------------------------------------|
D|----------------------------------------------------------------------------------------|
E|----------------------------------------------------------------------------------------|

e|---4---------4-------4---------0---------2-----0-----2-----0----------------------------|
B|-----5---7-----7-------5---7-----0---------0-----0-----0-------4---5--------------------|
G|-6-----6---6-------6-----6---6---------4-----4-----4-----4---4---4---4------------------|
D|----------------------------------------------------------------------------------------|
A|----------------------------------------------------------------------------------------|
E|----------------------------------------------------------------------------------------|

e|-0---0---0---0---0---0---0--0---0-------------------------------------------------------|
B|--4---4---4---4---4---4---4--4---4------------------------------------------------------|
G|---4---4---4---4---4---4---4--4---------------------------------------------------------|
D|----------------------------------------------------------------------------------------|
A|----------------------------------------------------------------------------------------|
E|----------------------------------------------------------------------------------------|

[Verse 2]
Waiting on the smoke to rise
e|-0---0---0-0----0---0---0-0---------0-0-0--0-0-0--0-0-0--0-0-0--------------------------|
B|-0---5---0-0----0---5---0-0---------0-0-0--0-0-0--0-0-0--0-0-0--------------------------|
G|-6---6---8-8----6---6---8-8---------6-6-6--6-6-6--6-6-6--6-6-6--------------------------|
D|-7---6---9-9----7---6---9-9---------7-7-7--7-7-7--7-7-7--7-7-7--------------------------|
A|-7---4---9-9----7---4---9-9---------7-7-7--7-7-7--7-7-7--7-7-7--------------------------|
E|-5-------7-7----5-------7-7---------5-5-5--5-5-5--5-5-5--5-5-5--------------------------|

e|-0-0-0--0-0-0--0-0-0--0-0-0----0-0-0--0-0-0--0-0-0--0-0-0--0-0-0--0-0-0--0-0-0--0-0-0---|
B|-5-5-5--5-5-5--5-5-5--5-5-5----0-0-0--0-0-0--0-0-0--0-0-0--0-0-0--0-0-0--0-0-0--0-0-0---|
G|-6-6-6--6-6-6--6-6-6--6-6-6----8-8-8--8-8-8--8-8-8--8-8-8--8-8-8--8-8-8--8-8-8--8-8-8---|
D|-6-6-6--6-6-6--6-6-6--6-6-6----9-9-9--9-9-9--9-9-9--9-9-9--9-9-9--9-9-9--9-9-9--9-9-9---|
A|-4-4-4--4-4-4--4-4-4--4-4-4----9-9-9--9-9-9--9-9-9--9-9-9--9-9-9--9-9-9--9-9-9--9-9-9---|
E|-------------------------------7-7-7--7-7-7--7-7-7--7-7-7--7-7-7--7-7-7--7-7-7--7-7-7---|

[Chorus]
How did ya find me
e|---4---------4-------4---------0---------2-----0-----2-----0----------------------------|
B|-----5---7-----7-------5---7-----0---------0-----0-----0-------4---5--------------------|
G|-6-----6---6-------6-----6---6---------4-----4-----4-----4---4---4---4------------------|
D|----------------------------------------------------------------------------------------|
A|----------------------------------------------------------------------------------------|
E|----------------------------------------------------------------------------------------|

e|---4---------0-----0-----0-----0---------2-----0-----2-----0----------------------------|
B|-----5---7-----5-----5-----5---------------0-----0-----0-------4---5--------------------|
G|-6-----6---6-----6-----6-----6---------4-----4-----4-----4---4---4---4------------------|
D|----------------------------------------------------------------------------------------|
A|----------------------------------------------------------------------------------------|
E|----------------------------------------------------------------------------------------|

e|---4---------4-----4-----4-----0---------2-----0-----2-----0----------------------------|
B|-----5---7-----7-----7-----7---------------0-----0-----0-------4---5--------------------|
G|-6-----6---6-----6-----6-----6---------4-----4-----4-----4---4---4---4------------------|
D|----------------------------------------------------------------------------------------|
D|----------------------------------------------------------------------------------------|
E|----------------------------------------------------------------------------------------|

e|---4---------4-------4---------0---------2-----0-----2-----0----------------------------|
B|-----5---7-----7-------5---7-----0---------0-----0-----0-------4---5--------------------|
G|-6-----6---6-------6-----6---6---------4-----4-----4-----4---4---4---4------------------|
D|----------------------------------------------------------------------------------------|
A|----------------------------------------------------------------------------------------|
E|----------------------------------------------------------------------------------------|

e|-0---0---0---0---0---0---0--0---0-------------------------------------------------------|
B|--4---4---4---4---4---4---4--4---4------------------------------------------------------|
G|---4---4---4---4---4---4---4--4---------------------------------------------------------|
D|----------------------------------------------------------------------------------------|
A|----------------------------------------------------------------------------------------|
E|----------------------------------------------------------------------------------------|

[Interlude]
e|---------------------------------------------------------------------------------------7|
B|-4h-5-4h-5-4h-5-4h-5-4h-5-4h-5-4h-5-4h-5---5h-7-5h-7-5h-7-5h-7-5h-7-5h-7-5h-7-5h-7---7--|
G|----------------------------------------------------------------------------------------|
D|----------------------------------------------------------------------------------------|
A|----------------------------------------------------------------------------------------|
E|----------------------------------------------------------------------------------------|

e|----9-----------------------------------------------------------------------------------|
B|---9----4h-5-4h-5-4h-5-4h-5-4h-5-4h-5-4h-5-4h-5-----------------------------------------|
G|-6--------------------------------------------------------------------------------------|
D|----------------------------------------------------------------------------------------|
A|--------------------------------------------------2/-4---13-14--------------------------|
E|----------------------------------------------------------------------------------------|

e|----------------------------------------------------------------------------------------|
B|----------------------------------------------------------------------------------------|
G|----------------------------------------------------------------------------------------|
D|-9h-11-9h-11-9h-11-9h-11-9h-11-9h-11-9h-11-9h-11----------------------------------------|(x3)
A|----------------------------------------------------------------------------------------|
E|----------------------------------------------------------------------------------------|

[Chorus]
How did ya find me
e|---4---------4-------4---------0---------2-----0-----2-----0----------------------------|
B|-----5---7-----7-------5---7-----0---------0-----0-----0-------4---5--------------------|
G|-6-----6---6-------6-----6---6---------4-----4-----4-----4---4---4---4------------------|
D|----------------------------------------------------------------------------------------|
A|----------------------------------------------------------------------------------------|
E|----------------------------------------------------------------------------------------|

e|---4---------0-----0-----0-----0---------2-----0-----2-----0----------------------------|
B|-----5---7-----5-----5-----5---------------0-----0-----0-------4---5--------------------|
G|-6-----6---6-----6-----6-----6---------4-----4-----4-----4---4---4---4------------------|
D|----------------------------------------------------------------------------------------|
A|----------------------------------------------------------------------------------------|
E|----------------------------------------------------------------------------------------|

e|---4---------4-----4-----4-----0---------2-----0-----2-----0----------------------------|
B|-----5---7-----7-----7-----7---------------0-----0-----0-------4---5--------------------|
G|-6-----6---6-----6-----6-----6---------4-----4-----4-----4---4---4---4------------------|
D|----------------------------------------------------------------------------------------|
D|----------------------------------------------------------------------------------------|
E|----------------------------------------------------------------------------------------|

e|---4---------4-------4---------0---------2-----0-----2-----0----------------------------|
B|-----5---7-----7-------5---7-----0---------0-----0-----0-------4---5--------------------|
G|-6-----6---6-------6-----6---6---------4-----4-----4-----4---4---4---4------------------|
D|----------------------------------------------------------------------------------------|
A|----------------------------------------------------------------------------------------|
E|----------------------------------------------------------------------------------------|

[Outro]
How did ya find me
e|---------------0-0-0--0-0-0--7-7-7-7-7-7-7-7-7-7-7-7------------------------------------|
B|---------------0-0-0--5-5-5--7-7-7-7-7-7-7-7-7-7-7-7------------------------------------|
G|---------------6-6-6--6-6-6--8-8-8-8-8-8-8-8-8-8-8-8------------------------------------|
D|-2-2-2--4-4-4--7-7-7--6-6-6--9-9-9-9-9-9-9-9-9-9-9-9------------------------------------|(x4)
A|-2-2-2--4-4-4--7-7-7--4-4-4--9-9-9-9-9-9-9-9-9-9-9-9------------------------------------|
E|-0-0-0--2-2-2--5-5-5---------7-7-7-7-7-7-7-7-7-7-7-7------------------------------------|            
Submit corrections


        Find Me  lessons Hard to play? Try these video lessons and learn fast Find Me  lessons
        
↑ Back to top | Tablatures and chords for acoustic guitar and electric guitar, ukulele, drums are parodies/interpretations of the original songs. You may use it for private study, scholarship, research or language learning purposes only