» » »

Kings Of Leon - Find Me Tabs

Artists:  A B C D E F G H I J K L M N O P Q R S T U V W X Y Z # 

Find Me Tabs

(ver. 2) Click to play this song!
Kings Of Leon
 Rating:
4.4/5 (5 votes)

 Find Me  lessons Tabs too difficult? Try these video lessons and learn fast
 
                INTRO LEAD - Take note of the slight variation third time round in the intro 

e|----4---------4-----4---------0----|----2-----0-----2-----0-------0----|
B|------5---7-----5-----5---7-----0--|------2-----0-----2-----0-4-----0--|
G|--6-----6---6-----6-----6---6------|--4-----4-----4-----4-------4------|
D|-----------------------------------|-----------------------------------|
A|-----------------------------------|-----------------------------------|
E|-----------------------------------|-----------------------------------|

e|----4---------4-----4---------0----|----2-----0-----2-----0-------0----|
B|------5---7-----5-----5---7-----0--|------2-----0-----2-----0-4-----0--|
G|--6-----6---6-----6-----6---6------|--4-----4-----4-----4-------4------|
D|-----------------------------------|-----------------------------------|
A|-----------------------------------|-----------------------------------|
E|-----------------------------------|-----------------------------------|

e|----4---------4-----4-----4-----0--|----2-----0-----2-----0-------0----|
B|------5---7-----7-----7-----7------|------2-----0-----2-----0-4-----0--|
G|--6-----6---6-----6-----6-----6----|--4-----4-----4-----4-------4------|
D|-----------------------------------|-----------------------------------|
A|-----------------------------------|-----------------------------------|
E|-----------------------------------|-----------------------------------|

e|----4---------4-----4---------0----|----2-----0-----2-----0-------0----|
B|------5---7-----5-----5---7-----0--|------2-----0-----2-----0-4-----0--|
G|--6-----6---6-----6-----6---6------|--4-------4-----4-----4-------4----|
D|-----------------------------------|-----------------------------------|
A|-----------------------------------|-----------------------------------|
E|-----------------------------------|-----------------------------------|


INTRO RHYTHM - Played three times

e|----------------|----------------|
B|----------------|----------------|
G|--6-6-6--6-6-6--|----------------|
D|--6-6-6--6-6-6--|--9-9-9--9-9-9--|
A|--4-4-4--4-4-4--|--9-9-9--9-9-9--|
E|----------------|--7-7-7--7-7-7--|


INTRO ENDING LEAD

e|----4---------4-----4-----4-----0--|----2-----0-----2-----0-------0----|
B|------5---7-----7-----7-----7------|------2-----0-----2-----0-4-----0--|
G|--6-----6---6-----6-----6-----6----|--4-----4-----4-----4-------4------|
D|-----------------------------------|-----------------------------------|
A|-----------------------------------|-----------------------------------|
E|-----------------------------------|-----------------------------------|

e|----4---------4-----4-----4-----0--|----2-----0-----2-----0------------|
B|------5---7-----7-----7-----7------|------2-----0-----2---0------------|
G|--6-----6---6-----6-----6-----6----|--4-----4-----4-----4--------------|
D|-----------------------------------|-----------------------------------|
A|-----------------------------------|-----------------------------------|
E|-----------------------------------|-----------------------------------|


INTRO ENDING RHYTHM / PRE CHORUS

e|------------------------------|------------------------------|------------------------------|
B|------------------------------|--5-5-5--5-5-5--5-5-5--5-5-5--|------------------------------|
G|--4-4-4--4-4-4--4-4-4--4-4-4--|--6-6-6--6-6-6--6-6-6--6-6-6--|--8-8-8--8-8-8--8-8-8--8-8-8--|
D|--7-7-7--7-7-7--7-7-7--7-7-7--|--6-6-6--6-6-6--6-6-6--6-6-6--|--9-9-9--9-9-9—-9-9-9--9-9-9--|
A|--7-7-7--7-7-7--7-7-7--7-7-7--|--4-4-4--4-4-4--4-4-4--4-4-4--|--9-9-9--9-9-9—-9-9-9--9-9-9--|
E|--5-5-5--5-5-5--5-5-5--5-5-5--|------------------------------|--7-7-7--7-7-7--7-7-7--7-7-7--|

e|------------------------------|
B|------------------------------|
G|--8-8-8--8-8-8--8-8-8--8-8-8--|
D|--9-9-9--9-9-9—-9-9-9--9-9-9--|
A|--9-9-9--9-9-9—-9-9-9--9-9-9--|
E|--7-7-7--7-7-7--7-7-7--7-7-7--|


VERSE

e|-----------|-----------|
B|-----------|-----------|
G|-----6-----|-----6-----|
D|--7—-6--9--|--7—-6--9--|
A|--7--4--9--|--7—-4--9--|
E|--5-----7--|--5-----7--|


CHORUS LEAD

e|----4---------4-----4---------0----|----2-----0-----2-----0-------0----|
B|------5---7-----5-----5---7-----0--|------2-----0-----2-----0-4-----0--|
G|--6-----6---6-----6-----6---6------|--4-----4-----4-----4-------4------|
D|-----------------------------------|-----------------------------------|
A|-----------------------------------|-----------------------------------|
E|-----------------------------------|-----------------------------------|

e|----4---------0-----0-----0-----0--|----2-----0-----2-----0-------0----|
B|------5---7-----5-----5-----5------|------2-----0-----2-----0-4-----0--|
G|--6-----6---6-----6-----6-----6----|--4-----4-----4-----4-------4------|
D|-----------------------------------|-----------------------------------|
A|-----------------------------------|-----------------------------------|
E|-----------------------------------|-----------------------------------|

e|----4---------4-----4-----4-----0--|----2-----0-----2-----0-------0----|
B|------5---7-----7-----7-----7------|------2-----0-----2-----0-4-----0--|
G|--6-----6---6-----6-----6-----6----|--4-----4-----4-----4-------4------|
D|-----------------------------------|-----------------------------------|
A|-----------------------------------|-----------------------------------|
E|-----------------------------------|-----------------------------------|

e|----4---------4-----4---------0----|----2-----0-----2-----0-------0----|
B|------5---7-----5-----5---7-----0--|------2-----0-----2-----0-4-----0--|
G|--6-----6---6-----6-----6---6------|--4-----4-----4-----4-------4------|
D|-----------------------------------|-----------------------------------|
A|-----------------------------------|-----------------------------------|
E|-----------------------------------|-----------------------------------|


CHORUS ENDING

e|----0-----0-----0-----0-----0-----0-----0-----0----|
B|------4-----4-----4-----4-----4-----4-----4-----0--|
G|--4-----4-----4-----4-----4-----4-----4-----4------|
D|---------------------------------------------------|
A|---------------------------------------------------|
E|---------------------------------------------------|


CHORUS RHYTHM

e|-----------------------------------------|
B|-----------------------------------------|
G|-1-1------------6-6----------------------|
D|-2-2--4-4--7-7--6-6--9-9--9-9--9-9--9-9--|
A|-2-2--4-4--7-7--4-4--9-9--9-9--9-9--9-9--|
E|-0-0--2-2--5-5-------7-7--7-7--7-7--7-7--|


SOLO - With lots of delay

e|--------------------------|------------------|--------------|------------|
B|--------------------------|-----12-------14--|--------------|------------|
G|-8h9-repeat—-9h11-repeat—-|--11-------13-----|--8h9-repeat--|------------|
D|--------------------------|--------11--------|--------------|------8--9--|
A|--------------------------|------------------|--------------|--7---------|
E|--------------------------|------------------|--------------|------------|

End the solo on what sounds like a looper on the last note


LAST CHORUS - The same only it ends early on open Be.

e|----4---------4-----4---------0----|----2-----0-----2-----0--|
B|------5---7-----5-----5---7-----0--|------2-----0-----2---0--|
G|--6-----6---6-----6-----6---6------|--4-----4-----4-----4----|
D|-----------------------------------|-------------------------|
A|-----------------------------------|-------------------------|
E|-----------------------------------|-------------------------|


OUTRO - Same chorus riff except for end - go to town on the B

e|----------------------7-7--7-7--7-7--7-7--|
B|-----------------5-5--7-7--7-7--7-7--7-7--|
G|--1-1--3-3--5-5--6-6--8-8--8-8--8-8--8-8--|
D|--2-2--4-4--7-7--6-6--9-9--9-9--9-9--9-9--|
A|--2-2--4-4--7-7--4-4--9-9--9-9--9-9--9-9--|
E|--0-0--2-2--5-5-------7-7--7-7--7-7--7-7--|

e|----------------------7--|
B|-----------------5-5—-7--|
G|--1-1--3-3--5-5--6-6—-8--|
D|--2-2--4-4--7-7--6-6--9--|
A|--2-2--4-4--7-7--4-4—-9--|
E|--0-0--2-2--5-5-------7--|            
Submit corrections


        Find Me  lessons Hard to play? Try these video lessons and learn fast Find Me  lessons
        
↑ Back to top | Tablatures and chords for acoustic guitar and electric guitar, ukulele, drums are parodies/interpretations of the original songs. You may use it for private study, scholarship, research or language learning purposes only