» » »

Kings Of Leon - Find Me Tabs

Artists:  A B C D E F G H I J K L M N O P Q R S T U V W X Y Z # 

Find Me Tabs

(ver. 1) Click to play this song!
Kings Of Leon
 Rating:
4.3/5 (19 votes)


 Find Me  lessons Tabs too difficult? Try these video lessons and learn fast
 
                e||----4---------4-----4---------0-----2-----0-----2-----0-------0-|
B||------5---7-----7-----5---7-----0-----2-----0-----2-------2-----|
G||--6-----6---6-----6-----6---6-----4-----4-----4-----4---4---4---|
D||----------------------------------------------------------------|
A||----------------------------------------------------------------|
E||----------------------------------------------------------------| x2

e||----4---------4-----4-----5-----0---2-----0-----2-----0-------0-|
B||------5---7-----7-----5-----7---------2-----0-----2-------2-----|
G||--6-----6---6-----6-----6-----6---4-----4-----4-----4---4---4---|
D||----------------------------------------------------------------|
A||----------------------------------------------------------------|
E||----------------------------------------------------------------| x1            
Submit corrections



        Find Me  lessons Hard to play? Try these video lessons and learn fast Find Me  lessons
        
↑ Back to top | Tablatures and chords for acoustic guitar and electric guitar, ukulele, drums are parodies/interpretations of the original songs. You may use it for private study, scholarship, research or language learning purposes only