» » »

James Bay - Hold Back The River Intro Tabs

Artists:  A B C D E F G H I J K L M N O P Q R S T U V W X Y Z # 

Hold Back The River Intro Tabs

(ver. 1) Click to play this song!
James Bay
 Rating:
3.7/5 (6 votes)

 Hold Back The River Intro lessons Tabs too difficult? Try these video lessons and learn fast
 
                e|---------------8---10--8--------8---10---8--------------------------|
B|---6---8---10--------------10----------------10--------10---10---8--|
G|--------------------------------------------------------------------|
D|---------------7---8---7--------7---8----7--------------------------|
A|---5---7---8---------------8-----------------8-------8----8---------|
E|-----------------------------------------------------------------8--|

e|-----------8-----|
B|-----------------|
G|---10--9---------|
D|-----------------|
A|-----------------|
E|---8---8---------|
            
Submit corrections


        Hold Back The River Intro lessons Hard to play? Try these video lessons and learn fast Hold Back The River Intro lessons
        
↑ Back to top | Tablatures and chords for acoustic guitar and electric guitar, ukulele, drums are parodies/interpretations of the original songs. You may use it for private study, scholarship, research or language learning purposes only