» » »

James Bay - Hold Back The River Bass

Artists:  A B C D E F G H I J K L M N O P Q R S T U V W X Y Z # 

Hold Back The River Bass

(ver. 2) Click to play this song!
James Bay
 Rating:
4.3/5 (26 votes)

 Hold Back The River  lessons Tabs too difficult? Try these video lessons and learn fast
 
                "Once upon a different?"
G| -----------------------------------------------------------------------------------------------|
D|------------------------------------------------------------------------------------------------|
A| ---5---7-8----------8----------8------------------------------5---7-8----------8----------8----|
E| -------------5-6--5----5-6--5------8----0--5-6---0--5-8-- ----------5-6--5----5-6--5------8----|


"Hold back the river?" x2
G| -----------------------------------------------------------------|
D| -----------------------------------------------------------------|
A| -1-1-1-1-1-1-1-1-1-1-1-1-1-1-1-1-1-1-1-1-1-1-1-1-1-1-1-1-1-1-1-3-|
E| -----------------------------------------------------------------|

G| -----------------------------------------------------------------|
D| -----------------------------------------------------------------|
A| --------------------------------------------------3-3-3-3-3-3-3--|
E| -1-1-1-1-1-1-1-1-1-1-1-1-1-1-1-1-1-1-1-1-1-1-1-1-1---------------|


"Oh, oh oh?"
G| ---------------------------------------------------------------------------------------------|
D| ---------------------------------------------------------------------------------------------|
A| ---5-5-5-5-5-7-7-8-8-8-8-8-------------------8-8-8-8-8-8-------------------8-8-8-8-8-8-8-8-8-|
E| --------------------------5-5-6-6-6-6-6-6-5-5-----------5-5-6-6-6-6-6-6-5-5------------------|

G| ---------------------------------|
D| ---------------------------------|
A| ---------------------------------|
E| -8-8-8-8-8-8-8-8-8-8-8-8-8-8-8-8-|


"Lonely water..."
G| ------------------------------------------------------------------------------------------------------|
D| ------------------------------------------------------------------------------------------------------|
A| ------------------------------------------------------------------1~----------------------------------|
E| 1~-------------------------------1~---------------------------------------------------------------3~--|

G| ------------------------------------------------------------------------------------------------------|
D| ------------------------------------------------------------------------------------------------------|
A| -/8-8-8-8-8-8-8-8-8-8-8-8-8-8-8-8-8-8-8-8-8-8-8-8-8-8-8-8-8-8-8-8-1-1-1-1-1-1-1-1-1-1-1-1-1-1-1-1-----|
E| --------------------------------------------------------------------------------------------------3~--|


"Hold back the river?" x2
G| -----------------------------------------------------------------|
D| -----------------------------------------------------------------|
A| -1-1-1-1-1-1-1-1-1-1-1-1-1-1-1-1-1-1-1-1-1-1-1-1-1-1-1-1-1-1-1-3-|
E| -----------------------------------------------------------------|

G| -----------------------------------------------------------------|
D| -----------------------------------------------------------------|
A| --------------------------------------------------3-3-3-3-3-3-3--|
E| -1-1-1-1-1-1-1-1-1-1-1-1-1-1-1-1-1-1-1-1-1-1-1-1-1---------------|


"Lonely water..."
G| -----------------------------------------------------------------------------------------------|
D| -----------------------------------------------------------------------------------------------|
A| ---------------------------------------------------------------1-1-1-1-1-1-1-1-1-1-1-1-1-1-1-1-|
E| 1-1-1-1-1-1-1-1-1-1-1-1-1-1-1-1-1-1-1-1-1-1-1-1-1-1-1-1-1-1-1-1--------------------------------|

G| ---------------------------------|
D| ---------------------------------|
A| ---------------------------------|
E| 3-3-3-3-3-3-3-3-3/8-8-8-8-8-8-8--|

G| -------------------------------------------------------------------------------------------------|
D| -------------------------------------------------------------------------------------------------|
A| ---------------------------------------------------------------1-1-1-1-1-1-1-1-1-1-1-1-1-1-1-1---|
E| 1-1-1-1-1-1-1-1-1-1-1-1-1-1-1-1-1-1-1-1-1-1-1-1-1-1-1-1-1-1-1-1-------------------------------3~-|            
Submit corrections


        Hold Back The River  lessons Hard to play? Try these video lessons and learn fast Hold Back The River  lessons
        
↑ Back to top | Tablatures and chords for acoustic guitar and electric guitar, ukulele, drums are parodies/interpretations of the original songs. You may use it for private study, scholarship, research or language learning purposes only