Home » J » James Bay »

James Bay - Hold Back The River Ukulele

Artists:  A B C D E F G H I J K L M N O P Q R S T U V W X Y Z # 

Hold Back The River Ukulele

(ver. 1) Click to play this song!
James Bay
 Rating:
3.4/5 (5 votes)
                A-2-4-6-9-11-9-6-9-11-9-6-6-6-4-2-1-|
E-----------------------------------|
C-----------------------------------|
G-1-3-4-8-9-8-4-8--9--8-4-----------|


With the lyrics:

Tried to keep you close to me but life got in between

A-2---4----6---9---11----9--6--9---11---9---6------6-6-4-2-1-|
E------------------------------------------------------------|
C------------------------------------------------------------|
G-1---3----4---8----9----8--4--8---9----8---4----------------|

Etc.

In the chorus It goes like this:

Hold back the river, let me look in your eyes

A-2------------------------------------------|
E--------------------------------------------|
C--------------------------------------------|
G-1------------------------------------------|            
Submit corrections

↑ Back to top | Tablatures and chords for acoustic guitar and electric guitar, ukulele, drums are parodies/interpretations of the original songs. You may use it for private study, scholarship, research or language learning purposes only