» » »

James Bay - Hold Back The River Tabs

Artists:  A B C D E F G H I J K L M N O P Q R S T U V W X Y Z # 

Hold Back The River Tabs

(ver. 2) Click to play this song!
James Bay
 Rating:
3.8/5 (5 votes)

 Hold Back The River  lessons Tabs too difficult? Try these video lessons and learn fast
 
                Tuning:Standard

e|-----------------------------------------------------------------------------|
B|--6--8--10----13--15----13--10----13--15----13--10------10------10/8---6---5-|
G|--7--9--10----14--16----14--10----14--16----14--10--10------10---------------|
D|-----------------------------------------------------------------------------|
A|-----------------------------------------------------------------------------|
E|-----------------------------------------------------------------------------|


Chorus chords: (Hold back the river)

e|----------------8------10------------------------------------------------------------|
B|----6-----6-----10-----10------------------------------------------------------------|
G|----7-----7-----10-----10------------------------------------------------------------|
D|----8-----8-----10-----10------10----------------------------------------------------|
A|----8-----8-----8------8-------10----------------------------------------------------|
E|-------------------------------8-----------------------------------------------------|
            
Submit corrections


        Hold Back The River  lessons Hard to play? Try these video lessons and learn fast Hold Back The River  lessons
        
↑ Back to top | Tablatures and chords for acoustic guitar and electric guitar, ukulele, drums are parodies/interpretations of the original songs. You may use it for private study, scholarship, research or language learning purposes only