» » »

James Bay - Hold Back The River Bass

Artists:  A B C D E F G H I J K L M N O P Q R S T U V W X Y Z # 

Hold Back The River Bass

(ver. 1) Click to play this song!
James Bay
 Rating:
2.5/5 (29 votes)

 Hold Back The River  lessons Tabs too difficult? Try these video lessons and learn fast
 
                 Intro
  Q=133
 4/4
  Gtr I (One whole step down: DGCF)
  W          W          W          W
|----------|----------|----------|------|
|----------|----------|----------|------|
|----------|----------|----------|------|
|----------|----------|----------|------|


  W          W          W          W
|----------|----------|----------|------||
|----------|----------|----------|------||
|----------|----------|----------|------||
|----------|----------|----------|------||


 1st Verse
  W          W          W          W
|----------|----------|----------|------|
|----------|----------|----------|------|
|----------|----------|----------|------|
|----------|----------|----------|------|


  W          W          W          W
|----------|----------|----------|------|
|----------|----------|----------|------|
|----------|----------|----------|------|
|----------|----------|----------|------|


  W          W          W          W
|----------|----------|----------|------|
|----------|----------|----------|------|
|----------|----------|----------|------|
|----------|----------|----------|------|


  W          W          W          W
|----------|----------|----------|------||
|----------|----------|----------|------||
|----------|----------|----------|------||
|----------|----------|----------|------||


 Chorus
  W          W          W          W          W
|----------|----------|----------|----------|------|
|----------|----------|----------|----------|------|
|----------|----------|----------|----------|------|
|----------|----------|----------|----------|------|


  W          W          W          W          W
|----------|----------|----------|----------|------||
|----------|----------|----------|----------|------||
|----------|----------|----------|----------|------||
|----------|----------|----------|----------|------||


 2nd Verse
  H    E E E  E    +H     E E E E   +H     E E E  E    +H     E E E E
|---------------|-----------------|-----------------|-----------------|
|---------------|-----------------|-----------------|-----------------|
|-7------9---10-|-(10)------------|--------------10-|-(10)------------|
|---------------|-----------7---8-|-(8)------7------|-----------7---8-|


  +H     E E E  E    +W            W           +E   E E E +E  E E E
|-----------------|-------------|-----------|-----------------------|
|-----------------|-------------|-----------|---------------------0-|
|--------------10-|-(10)--------|-----------|---------0-2-(2)---0---|
|-(8)------7------|-------------|-10--------|-(10)\-2---------2-----|


  H    E E E  E    +H     E E E E   +H     E E E  E    +H     E E E E
|---------------|-----------------|-----------------|-----------------|
|---------------|-----------------|-----------------|-----------------|
|-7------9---10-|-(10)------------|--------------10-|-(10)------------|
|---------------|-----------7---8-|-(8)------7------|-----------7---8-|


  +H     E E E  E    +W            W           +W
|-----------------|-------------|-----------|---------||
|-----------------|-------------|-----------|---------||
|--------------10-|-(10)--------|-----------|---------||
|-(8)------7------|-------------|-10--------|-(10)----||


 Chorus
  $
  E E E E E E E E   E E E E E E E E   E E E E E E E E   E E E E E Q.
|-----------------|-----------------|-----------------|----------------|
|-----------------|-----------------|-----------------|----------------|
|-----------------|-----------------|-----------------|----------------|
|-8-8-8-8-8-8-8-8-|-8-8-8-8-8-8-8-8-|-8-8-8-8-8-8-8-8-|-8-8-8-8-8-8----|


  Q  E E E E E E   E E E E E E E E   E E E E E E E S S   E E E E E E E E
|----------------|-----------------|-------------------|-----------------|
|----------------|-----------------|-------------------|-----------------|
|----------------|-----------------|---------------3s5-|-5-5-5-5-5-5-5-5-|
|-3--3-3-3-3-3-3-|-3-3-3-3-3-3-3-3-|-3-3-3-3-3-3-3-----|-----------------|


  E E E E E E E E   E E E E E E E E   E E E E E E E E   E E E E E Q.
|-----------------|-----------------|-----------------|----------------|
|-----------------|-----------------|-----------------|----------------|
|-----------------|-----------------|-----------------|----------------|
|-8-8-8-8-8-8-8-8-|-8-8-8-8-8-8-8-8-|-8-8-8-8-8-8-8-8-|-8-8-8-8-8-8----|


                                                                  To Coda
  Q  E E E E E E   E E E E E E E E   E E E E E E E S S   E E E E E E E E
|----------------|-----------------|-------------------|--------------------||
|----------------|-----------------|-------------------|--------------------||
|----------------|-----------------|---------------3s5-|-5-5-5-5-5-5-5-5----||
|-3--3-3-3-3-3-3-|-3-3-3-3-3-3-3-3-|-3-3-3-3-3-3-3-----|--------------------||


 Interlude
  Q  E E E Q   E    +E   E  E  E  E Q  E
|----------------|-----------------------|
|----------------|-----------------------|
|-7--7-7-7-9--10-|-(10)-10-10-10-10------|
|----------------|------------------7--8-|


  +E  E E E E Q   E    +E   E  E  E  E Q  E
|-------------------|-----------------------|
|-------------------|-----------------------|
|----------------10-|-(10)-10-10-10-10------|
|-(8)-8-8-8-8-7-----|------------------7--8-|


  +E  E E E E Q   E    +E   E  E  E  E  E  Q
|-------------------|-------------------------|
|-------------------|-------------------------|
|----------------10-|-(10)-10-10-10-10-10-10--|
|-(8)-8-8-8-8-7-----|-------------------------|


  Q  E E E E E E   E E E E E E E E
|----------------|-----------------||
|----------------|---------------7-||
|-5--5-5-5-5-5-5-|-5-5-5-5-5-5-5---||
|----------------|-----------------||


 Bridge
  W          +W           W          +W
|----------|------------|----------|--------|
|-5--------|-(5)--------|-5--------|-(5)----|
|----------|------------|----------|--------|
|----------|------------|----------|--------|


  W          +W           W          +H..       S S
|----------|------------|----------|----------------|
|----------|------------|----------|----------------|
|-3--------|-(3)--------|----------|------------5s7-|
|----------|------------|-5--------|-(5)------------|


  E E E E E E E E   E E E E E E E E   E E E E E E E E   E E E E E E E E
|-----------------|-----------------|-----------------|-----------------|
|-5-5-5-5-5-5-5-5-|-5-5-5-5-5-5-5-5-|-5-5-5-5-5-5-5-5-|-5-5-5-5-5-5-5-5-|
|-----------------|-----------------|-----------------|-----------------|
|-----------------|-----------------|-----------------|-----------------|


                                         D.S. al Coda
                                                6/4
  E E E E E E E E   E E E E E E E E   W          +W.
|-----------------|-----------------|----------|---------||
|-----------------|-----------------|----------|---------||
|-3-3-3-3-3-3-3-3-|-3-3-3-3-3-3-3-3-|----------|---------||
|-----------------|-----------------|-5--------|-(5)-----||


 Bridge
  &
 4/4
  E E E E E E E E   E E E E E E E E   E E E E E E E E   E E E E E E E E
|-----------------|-----------------|-----------------|-----------------|
|-5-5-5-5-5-5-5-5-|-5-5-5-5-5-5-5-5-|-5-5-5-5-5-5-5-5-|-5-5-5-5-5-5-5-5-|
|-----------------|-----------------|-----------------|-----------------|
|-----------------|-----------------|-----------------|-----------------|


  E E E E E E E E   E E E E E E E E   E E E E E E E E   E E E E E E E E
|-----------------|-----------------|-----------------|-----------------|
|-----------------|-----------------|-7-7-7-7-7-7-7-7-|-----------------|
|-3-3-3-3-3-3-3-3-|-3-3-3-3-3-3-3-3-|-----------------|-5-5-5-5-5-5-5-5-|
|-----------------|-----------------|-----------------|-----------------|


  E E E E E E E E   E E E E E E E E   E E E E E E E E   E E E E E E E E
|-----------------|-----------------|-----------------|-----------------|
|-5-5-5-5-5-5-5-5-|-5-5-5-5-5-5-5-5-|-5-5-5-5-5-5-5-5-|-5-5-5-5-5-5-5-5-|
|-----------------|-----------------|-----------------|-----------------|
|-----------------|-----------------|-----------------|-----------------|


                                                             6/4
  E E E E E E E E   E E E E E E E E   W          +W           +W.
|-----------------|-----------------|----------|------------|--------||
|-----------------|-----------------|-7--------|-(7)--------|-(7)----||
|-3-3-3-3-3-3-3-3-|-3-3-3-3-3-3-3-3-|----------|------------|--------||
|-----------------|-----------------|----------|------------|--------||


 Outro
 4/4
  W          W          W          W
|----------|----------|----------|------|
|----------|----------|----------|------|
|----------|----------|----------|------|
|----------|----------|----------|------|


  W          W          W
|----------|----------|------*|
|----------|----------|------*|
|----------|----------|------*|
|----------|----------|------*|            
Submit corrections


        Hold Back The River  lessons Hard to play? Try these video lessons and learn fast Hold Back The River  lessons
        
↑ Back to top | Tablatures and chords for acoustic guitar and electric guitar, ukulele, drums are parodies/interpretations of the original songs. You may use it for private study, scholarship, research or language learning purposes only