Home » I » Imagine Dragons »

Imagine Dragons - I Bet My Life Tabs

Artists:  A B C D E F G H I J K L M N O P Q R S T U V W X Y Z # 

I Bet My Life Tabs

(ver. 1) Click to play this song!
Imagine Dragons
Capo on 1st Fret

[Intro]
e|-------------------|
B|-------------------|
G|---10--10--10--10--|
D|-------------------|
A|-------------------|
E|-------------------|

[Verse 1]
e|---------------------------------------------------------------------------|
B|---------------------------------------------------------------------------|
G|--6--6\5--5--5/10--10--10\3--3--3/6--6--6\5--5--5/10--10--10--6--0---------|
D|---------------------------------------------------------------------------|
A|---------------------------------------------------------------------------|
E|---------------------------------------------------------------------------|

e|---------------------------------------------------------------------------|
B|---------------------------------------------------------------------------|
G|--6--6\5--5--5/10--10--10\3--3--3/6--6--6\5--5--5/10--10--10--10--10-------|
D|---------------------------------------------------------------------------|
A|---------------------------------------------------------------------------|
E|---------------------------------------------------------------------------|

e|---------------------------------------------------------------------------|
B|---------------------------------------------------------------------------|
G|--6--6\5--5--5/10--10--10\3--3--3/6--6--6\5--5--5/10--10--10--6--0---------|
D|---------------------------------------------------------------------------|
A|---------------------------------------------------------------------------|
E|---------------------------------------------------------------------------|

e|---------------------------------------------------------------------------|
B|---------------------------------------------------------------------------|
G|--6--6\5--5--5/10--10--10\3--3--3/6--6--6\5--5--5/10-----------------------|
D|---------------------------------------------------------------------------|
A|---------------------------------------------------------------------------|
E|---------------------------------------------------------------------------|

[Chorus]
e|--0--|-0--0-----|--3----|
B|--2--|-2--2-----|--0----|
G|--0--|-3--0--x3-|--0----|  (x2)
D|--3--|-4--3-----|--0----|
A|--4--|-4--4-----|--3----|
E|--0--|-0--0-----|--4----|

[Verse 2]
e|---------------------------------------------------------------------------|
B|---------------------------------------------------------------------------|
G|--6--6\5--5--5/10--10--10\3--3--3/6--6--6\5--5--5/10--10--10--6--0---------|
D|---------------------------------------------------------------------------|
A|---------------------------------------------------------------------------|
E|---------------------------------------------------------------------------|

e|---------------------------------------------------------------------------| 
B|---------------------------------------------------------------------------|
G|--6--6\5--5--5/10--10--10\3--3--3/6--6--6\5--5--5/10--10--10--10--10-------|
D|---------------------------------------------------------------------------|
A|---------------------------------------------------------------------------|
E|---------------------------------------------------------------------------|

e|--9--13--11----[x14]---|---9---|
B|-----------------------|-------|
G|-----------------------|-------|
D|-----------------------|-------|
A|-----------------------|-------|
E|-----------------------|-------|

[Chorus]
e|--0--|-0--0-----|--3----|
B|--2--|-2--2-----|--0----|
G|--0--|-3--0--x3-|--0----|  (x2)
D|--3--|-4--3-----|--0----|
A|--4--|-4--4-----|--3----|
E|--0--|-0--0-----|--4----|

[Bridge]
e|-------------------|-------------------|
B|-------------------|-------------------|
G|------10--8--[x7]--|---8h10p8----------|  (x2)
D|--11---------------|----------11--10---|
A|-------------------|-------------------|
E|----palm muted-----|-------------------|

e|-------------------|-----------------------|
B|-------------------|-----------------------|
G|------10--8--[x8]--|--8--10--11------------| 
D|--11---------------|-------------11--10----|
A|-------------------|-----------------------|
E|----palm muted-----|-----------------------|

[Chorus]
e|--0--|-0--0-----|--3----|
B|--2--|-2--2-----|--0----|
G|--0--|-3--0--x3-|--0----|  (x2)
D|--3--|-4--3-----|--0----|
A|--4--|-4--4-----|--3----|
E|--0--|-0--0-----|--4----|

[Solo]
e|---------------------------------------------|
B|--------9-(9)--------9------11--9------------|
G|--8/10---------8--10-----10---------10--8----| (x2)
D|---------------------------------------------|
A|---------------------------------------------|
E|---------------------------------------------|

e|-----------------------------------9--8----------------------|
B|--------9-(9)--------9------11--9--------11--9---------------|
G|--8/10---------8--10-----10---------------------11--10--8----|
D|-------------------------------------------------------------|
A|-------------------------------------------------------------|
E|-------------------------------------------------------------|

e|--------16-(16)----------16------18--16------------|
B|--16/18----------16--18-----18-----------18--16----| 
G|---------------------------------------------------| (x2)
D|---------------------------------------------------|
A|---------------------------------------------------|
E|---------------------------------------------------|

e|--------16-(16)----------16------18--16-|--9--8-------------8----|
B|--16/18----------16--18-----18----------|--------11--9--11-------|
G|----------------------------------------|------------------------|
D|----------------------------------------|------------------------|
A|----------------------------------------|------------------------|
E|----------------------------------------|---tremolo picking------|            
Submit corrections

↑ Back to top | Tablatures and chords for acoustic guitar and electric guitar, ukulele, drums are parodies/interpretations of the original songs. You may use it for private study, scholarship, research or language learning purposes only