Home » I » Imagine Dragons »

Imagine Dragons - Dream Tabs

Artists:  A B C D E F G H I J K L M N O P Q R S T U V W X Y Z # 

Dream Tabs

(ver. 1) Click to play this song!
Imagine Dragons
[Chorus 1] (There is no guitar in this chorus. You can choose to play if you want)

e|------------16--|---------------|-----------16----------16----|
B|--------17------|-----------17--|-------17----------17--------|
G|----18----------|---16--18------|---18----------18------------|
D|----------------|---------------|-----------------------------|  [x2]
A|----------------|---------------|-----------------------------|
E|----------------|---------------|-----------------------------|

[Chorus 2]

e|------------16--|---------------|-----------16----------16----|
B|--------17------|-----------17--|-------17----------17--------|
G|----18----------|---16--18------|---18----------18------------|
D|----------------|---------------|-----------------------------|  [x2]
A|----------------|---------------|-----------------------------|
E|----------------|---------------|-----------------------------|

e|----16--16--16--16--16--16--16--16----|
B|----17--17--17--17--17--17--17--17----|
G|----18--18--18--18--18--18--18--18----|
D|--------------------------------------|
A|--------------------------------------|
E|--------------------------------------|

[Bridge]   (Becomes audible at 2:50)
 
e|-------------|
B|-------------|
G|-------11----|  (Repeat until bridge ends)
D|----11-------|  
A|-------------|
E|-------------|

[Chorus 3]

e|------------16--|---------------|-----------16----------16----|
B|--------17------|-----------17--|-------17----------17--------|
G|----18----------|---16--18------|---18----------18------------|
D|----------------|---------------|-----------------------------|  [x2]
A|----------------|---------------|-----------------------------|
E|----------------|---------------|-----------------------------|

e|----16--16--16--16--16--16--16--16----|
B|----17--17--17--17--17--17--17--17----|
G|----18--18--18--18--18--18--18--18----|
D|--------------------------------------|
A|--------------------------------------|
E|--------------------------------------|

[Outro]

e|------------------|----------------------|------------|
B|--14------14--16--|------14------14--16--|------14----|
G|------13----------|--13------13----------|--13--------|
D|------------------|----------------------|------------|
A|------------------|----------------------|------------|
E|------------------|----------------------|------------|

e|------------------|----------------------|------------|
B|--17------17--19--|------17------17--19--|------17----|
G|------16----------|--16------16----------|--16--------|
D|------------------|----------------------|------------|
A|------------------|----------------------|------------|
E|------------------|----------------------|------------|

e|------------------|----------------------|------------|
B|--19------19--21--|------19------19--21--|------19----|
G|------18----------|--18------18----------|--18--------|
D|------------------|----------------------|------------|
A|------------------|----------------------|------------|
E|------------------|----------------------|------------|


e|------------------|----------------------|------------|
B|--14------14--16--|------14------14--16--|------14----|
G|------13----------|--13------13----------|--13--------|
D|------------------|----------------------|------------|
A|------------------|----------------------|------------|
E|------------------|----------------------|------------|            
Submit corrections

↑ Back to top | Tablatures and chords for acoustic guitar and electric guitar, ukulele, drums are parodies/interpretations of the original songs. You may use it for private study, scholarship, research or language learning purposes only