» » »

Hozier - Take Me To Church Bass

Artists:  A B C D E F G H I J K L M N O P Q R S T U V W X Y Z # 

Take Me To Church Bass

(ver. 2) Click to play this song!
Hozier
 Rating:
4/5 (4 votes)

 Take Me To Church  lessons Tabs too difficult? Try these video lessons and learn fast
 
                Tuning:EADG
0:29                                  
G|---------------------------|
D|---------------------------|
A|-----------------5-3\------|
E|-0-5-0-5-3-5-0-5-----------|
  0:58
G|---------|
D|---------|
A|---------|
E|-5-3-3-1-|
  1:13 and 1:22
G|------------------------|
D|------------------------|
A|------------------------|
E|-3--3-5--5-0---5-3-3-1--|
  1:30
G|----------------------|
D|----------------------|
A|-----------------5-3--|  X2
E|-0-5-0-5-3-5-0-5------|
  2:01
G|----------|
D|----------|
A|----------|
E|-5-3-3-1--|
   2:11 and 2:26
G|------------------------|
D|------------------------|
A|------------------------|
E|-3--3-5--5-0---5-3-3-1--|
   2:31
G|-----------------|
D|-----------------|
A|-3--3-----2--2----|  X4
E|------3--3-----0--|
   3:19
G|----------|
D|----------|
A|----------|
E|--5-3-3-1-|
  3:28 and 3:42
G|-----------------------|
D|-----------------------|
A|-----------------------|
E|-3--3-5--5-0---5-3-3-1-|            
Submit corrections


        Take Me To Church  lessons Hard to play? Try these video lessons and learn fast Take Me To Church  lessons
        
↑ Back to top | Tablatures and chords for acoustic guitar and electric guitar, ukulele, drums are parodies/interpretations of the original songs. You may use it for private study, scholarship, research or language learning purposes only