» » »

Hozier - Take Me To Church Bass

Artists:  A B C D E F G H I J K L M N O P Q R S T U V W X Y Z # 

Take Me To Church Bass

(ver. 3) Click to play this song!
Hozier
 Rating:
4.4/5 (14 votes)

 Take Me To Church lessons Tabs too difficult? Try these video lessons and learn fast
 
                [Intro]

G|---------------------------------------------------|
D|----7----7--5--7----7----7----7--5--7----7---------|
A|-7----7----------7----7---7-----------7-----5--3---|
E|---------------------------------------------------|


[Verse 1]

G|----------------------------------------5-----5-----------------------|
D|-------------------------------5--7--5-----5------5-------------------|
A|----------------------5--3--3-----------------------------------------|
E|-0--5-0--5-3--5-0--5-----------------------------------------3-2--2-1-|


[Chorus] (x2)

G|----------------------------------------------------------------------|
D|----------------------------------------------------------------------|
A|--------------2--22-2--22---------------------------------------------|
E|-0--00-0--00---------------3--33--5--55—0—00--5-3--3-2----------------|


[Verse 2]

G|-------------------------------------------------------|
D|-------------------------------------------------------|
A|-----------------------------------------5--55--3--33--|
E|-0--00--5--0--00--5--3--33--5--0--00--5----------------|

G|----------------------------------------------------------------------|
D|----------------------------------------------------------------------|
A|----------------------------------------5--55--3—33--3—33-------------|
E|-0--00--5--0--00--5--3--33--5--0--00--5-------------------3-2--2-1----|


Repeat Chorus x2


[Bridge] (x3)

G|---------------------------|
D|---------------------------|
A|-3--33---------------------|
E|--------3--33--2--22--3—30-|

G|----------------------9--99--7--77--5--55--5--55-|
D|-------------------------------------------------|
A|-3--33-------------------------------------------|
E|--------3--33--2--22-----------------------------|


[Interlude]

G|----5----5----5---------------|
D|-5----5----5----5-------------|
A|------------------------------|
E|--------------------3-2-—2-1--|


[Chorus] (x2)

G|--------------------------------------------------------|---------------------|
D|--------------------------------------------------------|---------------------|
A|--------------2--22-2--22-------------------------------|---------------------|
E|-0--00-0--00---------------3--33--5--55—0—00--5-3--3-2--|-0-------------------|
            
Submit corrections


        Take Me To Church lessons Hard to play? Try these video lessons and learn fast Take Me To Church lessons
        
↑ Back to top | Tablatures and chords for acoustic guitar and electric guitar, ukulele, drums are parodies/interpretations of the original songs. You may use it for private study, scholarship, research or language learning purposes only