Home » G » Green Day »

Green Day - Boulevard Of Broken Dreams Ukulele

Artists:  A B C D E F G H I J K L M N O P Q R S T U V W X Y Z # 

Boulevard Of Broken Dreams Ukulele

(ver. 2) Click to play this song!
Green Day
[Intro]
   Em   G    D    A
A|-2-2--2-2--0-0--0--0-|
E|-0-0--3-3--2-2--0--0-| x2
C|-4-4--2-2--2-2--1--1-|
G|-0-0--0-0--2-2--2--2-|
 
 
[Verse]
   Em    G       D       A
A|-2-2---2-5-2-2-0---0---0-2-0---2-|
E|-0-0-2-3---3---2-3-2-3-0---0-3-0-| x2
C|-4-4---2---2---2---2---1---1---4-|
G|-0-0---0---0---2---2---2---2---0-|
 
 
[Interlude]
   Em    G     D    A
A|-2-2-------2-0-0--0-0-|
E|-0-0-2-3-3---2-2--0-0-| x2
C|-4-4---2-2---2-2--1-1-|
G|-0-0---0-0---2-2--2-2-|
 
 
[Verse]
   Em    G       D       A
A|-2-2---2-5-2-2-0---0---0-2-0---2-|
E|-0-0-2-3---3---2-3-2-3-0---0-3-0-| x2
C|-4-4---2---2---2---2---1---1---4-|
G|-0-0---0---0---2---2---2---2---0-|
 
 
[Pre-Chorus]
   Em    G     D       A
A|-2-2-------2-0---0---0-2-0--|
E|-0-0-2-3-3---2-3-2-3-0---0-3| x2
C|-4-4---2-2---2---2---1---1--|
G|-0-0---0-0---2---2---2---2--|
 
 
[Chorus]
   C G   D       A       Em
A|-7-5---0---0---0-2-0-----|
E|-0-3-3-2-3-2-3-0---0-3-0-|x3
C|-0-2-2-2---2---1---1---4-|
G|-0-0-0-2---2---2---2---0-|
 
   C G       D
A|-7-5---5/7-2-2-2-2-2-|
E|-0-3-3-----2-2-2-2-2-|
C|-0-2-2-----2-2-2-2-2-|
G|-0-0-0-----2-2-2-2-2-|
 
 
[Outro]
   Em   G    D    Am
A|-2-2--2-2--0-0--0--0-|
E|-0-0--3-3--2-2--0--0-| x2
C|-4-4--2-2--2-2--1--1-|
G|-0-0--0-0--2-2--2--2-|
            
Submit corrections

↑ Back to top | Tablatures and chords for acoustic guitar and electric guitar, ukulele, drums are parodies/interpretations of the original songs. You may use it for private study, scholarship, research or language learning purposes only