Home » G » Green Day »

Green Day - Boulevard Of Broken Dreams Ukulele

Artists:  A B C D E F G H I J K L M N O P Q R S T U V W X Y Z # 

Boulevard Of Broken Dreams Ukulele

(ver. 1) Click to play this song!
Green Day
Intro:(Delay pedal) Fm  Ab  Eb  Bb


Verse 1:

Fm          Ab
I walk a lonely road 

    Eb                    Bb
The only one that I have ever known 

Fm          Ab
Don't know were it goes 

    Eb                    Bb
But it's home to me and I walk alone 


  Fm    Ab   Eb   Bb Fm   Ab   Eb   Bb

A---------------------------------------------
E-3-4--8-6--3-4------3-4--8-6--3-4------------
C---------------------------------------------
G---------------------------------------------


Fm          Ab
I walk this empty street 

    Eb                    Bb
On the Boulevard of broken dreams 

Fm          Ab
Were the city sleeps 

    Eb                    Bb
And I'm the only one and I walk alone



Pre-Chorus:


  Fm    Ab   Eb   Bb Fm   Ab   Eb   Bb

A---------------------------------------------
E-3-4--8-6--3-4------3-4--8-6--3-4------------
C---------------------------------------------
G---------------------------------------------

I walk alone I walk alone, I walk alone and I walk a-



Chorus:

Db    Ab         Eb             Fm
   My shadows the only one that walks beside me 

Db    Ab       Eb             Fm
   My shallow hearts the only thing that's beating 

Db     Ab      Eb               Fm
   Sometimes I wish someone out there will find me

Db      Ab        C
  'Till then I'll walk alone 



Fm  Ab  Eb  Bb  (repeat x2)
Ah..ah..



Verse 2:

Fm          Ab
I'm walking down the line

Eb                  Bb
That divides me somewhere in my mind 

Fm        Ab        Eb
On the border line of the edge 

     Bb
And where I walk alone 


  Fm    Ab   Eb   Bb Fm   Ab   Eb   Bb

A---------------------------------------------
E-3-4--8-6--3-4------3-4--8-6--3-4------------
C---------------------------------------------
G---------------------------------------------


Fm          Ab
Read between the lines

Eb                  Bb
What's f**ked up and everything's alright 
  
Fm        Ab             Eb            Bb
Check my vital signs to know I'm still alive 


And I walk alone


Pre-Chorus:

  Fm    Ab   Eb   Bb Fm   Ab   Eb   Bb

A---------------------------------------------
E-3-4--8-6--3-4------3-4--8-6--3-4------------
C---------------------------------------------
G---------------------------------------------

I walk alone I walk alone, I walk alone and I walk a-



Chorus:
Db    Ab         Eb             Fm
   My shadows the only one that walks beside me 

Db    Ab       Eb             Fm
   My shallow hearts the only thing that's beating 

Db     Ab      Eb               Fm
   Sometimes I wish someone out there will find me

Db      Ab        C
  'Till then I'll walk alone 


Fm  Ab  Eb  Bb  (repeat 2x)
Ah..ah..

I walk alone and I walk a-


Solo:

  Db       Ab   Eb   Fm 
A-----------------------
E-1-1-3-4--8-6--3-4-----   x3
C-----------------------
G-----------------------
 
  Db       Ab  C
A----------------------------
E-1-1-3-4--8-6-8-8-8-8-8-----  
C----------------------------
G----------------------------


Verse 3:

Fm          Ab
I walk this empty street 

Eb          Bb              Fm
On the Boulevard of broken dreams 

         Ab
Were the city sleeps 

    Eb           Bb             C
And I'm the only one and I walk alone



Chorus:
Db    Ab         Eb             Fm
   My shadows the only one that walks beside me 

Db    Ab       Eb             Fm
   My shallow hearts the only thing that's beating 

Db     Ab      Eb               Fm
   Sometimes I wish someone out there will find me

Db      Ab        C
  'Till then I'll walk alone 



Outro:

   Fm       Db      Eb      D       Ab      E  

A----------4--4-4--6--6-6--5--5-5------------------
E--1--1-1--------------------------4--4-4--0--0-0--   x3
C--------------------------------------------------
G--------------------------------------------------

A----------4--4-4--6--6-6--5--5-5----------------
E--1--1-1--------------------------4-4--0-0------
C------------------------------------------------
G------------------------------------------------
            
Submit corrections

↑ Back to top | Tablatures and chords for acoustic guitar and electric guitar, ukulele, drums are parodies/interpretations of the original songs. You may use it for private study, scholarship, research or language learning purposes only