» » »

Green Day - Boulevard Of Broken Dreams Tabs

Artists:  A B C D E F G H I J K L M N O P Q R S T U V W X Y Z # 

Boulevard Of Broken Dreams Tabs

(ver. 4) Click to play this song!
Green Day
 Rating:
4.3/5 (15 votes)

 Boulevard Of Broken Dreams lessons Tabs too difficult? Try these video lessons and learn fast
 
                [Intro]

e|--------------------------|--------------------------|
B|--------------------0-----|--------------------------|
G|-----------0-----------2--|-----2-----0--------0-----|
D|--------4--------0--------|--0-----4--------2-----2--|
A|-----2--------------------|--------------0-----------|
E|--0-----------3-----------|--------------------------|

e|--------------------------|--------------------------|
B|--------------------0-----|--------------------------|
G|-----------0-----------2--|-----2-----0--------0-----|
D|--------4--------0--------|--0-----4--------2-----2--|
A|-----2--------------------|--------------0-----------|
E|--0-----------3-----------|--------------------------|


[Verse 1]
         st    st
e|-----------------------|--------------------------------|
B|-----------------3--0--|-----------------------0--------|
G|--------------0--------|--2--0--2--0--2-----2-----2--0--|
D|-----2--2--4--0--------|--0-----------------------------|
A|--------2-----2--------|-----------------0--------------|
E|--0-----------3--------|--------------------------------|

         st    st
e|-----------------------|--------------------------------|
B|-----------------3--0--|-----------------------0--------|
G|--------------0--------|--2--0--2--0--2-----2-----2--0--|
D|-----2--2--4--0--------|--0-----------------------------|
A|--------2-----2--------|-----------------0--------------|
E|--0-----------3--------|--------------------------------|


[Link 1]

e|--------------------------|--------------------------|
B|--------------------0-----|--------------------------|
G|-----------0-----------2--|-----2-----0--------0-----|
D|--------4--------0--------|--0-----4--------2-----2--|
A|-----2--------------------|--------------0-----------|
E|--0-----------3-----------|--------------------------|

e|--------------------------|--------------------------|
B|--------------------0-----|--------------------------|
G|-----------0-----------2--|-----2-----0--------0-----|
D|--------4--------0--------|--0-----4--------2-----2--|
A|-----2--------------------|--------------0-----------|
E|--0-----------3-----------|--------------------------|


[Verse 2]
         st    st
e|-----------------------|--------------------------------|
B|-----------------3--0--|-----------------------0--------|
G|--------------0--------|--2--0--2--0--2-----2-----2--0--|
D|-----2--2--4--0--------|--0-----------------------------|
A|--------2-----2--------|-----------------0--------------|
E|--0-----------3--------|--------------------------------|

         st    st
e|-----------------------|--------------------------------|
B|-----------------3--0--|-----------------------0--------|
G|--------------0--------|--2--0--2--0--2-----2-----2--0--|
D|-----2--2--4--0--------|--0-----------------------------|
A|--------2-----2--------|-----------------0--------------|
E|--0-----------3--------|--------------------------------|


[Link 2]

e|--------------------------|----------------------------|
B|--------------------0-----|-----0--------------0-------|
G|-----------0-----------2--|--------2--0--2--------2--0-|
D|--------4--------0--------|--0-------------------------|
A|-----2--------------------|-----------------0----------|
E|--0-----------3-----------|----------------------------|

e|--------------------------|----------------------------|
B|--------------------0-----|-----0--------------0-------|
G|-----------0-----------2--|--------2--0--2--------2--0-|
D|--------4--------0--------|--0-------------------------|
A|-----2--------------------|-----------------0----------|
E|--0-----------3-----------|----------------------------|


[Chorus]
       st
e|------0------------------|-----------------------|
B|------1--3---------------|----------------0------|
G|------0--------0-----2---|----0-2-0-2---2---2-0--|
D|----2--------------------|--0--------------------|
A|--3----------------------|------------0----------|
E|------------3-----3------|-----------------------|

       st
e|------0------------------|-----------------------|
B|------1--3---------------|----------------0------|
G|------0--------0-----2---|----0-2-0-2---2---2-0--|
D|----2--------------------|--0--------------------|
A|--3----------------------|------------0----------|
E|------------3-----3------|-----------------------|

       st
e|------0------------------|-----------------------|
B|------1--3---------------|----------------0------|
G|------0--------0-----2---|----0-2-0-2---2---2-0--|
D|----2--------------------|--0--------------------|
A|--3----------------------|------------0----------|
E|------------3-----3------|-----------------------|

       st
e|------0------------------|-----------------------|
B|------1--3-----------4---|-------0---------------|
G|------0--------0---------|-----------2-/-4-------|
D|----2--------------------|-----------------------|
A|--3----------------------|---2-------------------|
E|------------3-----3------|-----------------------|

            
Submit corrections


        Boulevard Of Broken Dreams lessons Hard to play? Try these video lessons and learn fast Boulevard Of Broken Dreams lessons
        
↑ Back to top | Tablatures and chords for acoustic guitar and electric guitar, ukulele, drums are parodies/interpretations of the original songs. You may use it for private study, scholarship, research or language learning purposes only