Home » F » Foals »

Foals - What Went Down Tabs

Artists:  A B C D E F G H I J K L M N O P Q R S T U V W X Y Z # 

What Went Down Tabs

(ver. 3) Click to play this song!
Foals
Tuning: d A# F D A E

Chords:
  Gmin:      A#:        C:       Amin:
 d|--0-|   d|--0-|   d|--0-|   d|--0-|
A#|--0-|  A#|--0-|  A#|--0-|  A#|--0-|
 F|--0-|   F|--0-|   F|--0-|   F|--0-|
 D|--0-|   D|--0-|   D|--0-|   D|--0-|
 A|--1-|   A|--5-|   A|--6-|   A|--3-|
 E|--3-|   E|--6-|   E|--8-|   E|--5-|

Intro: 2x 
    d d  d u d  d d  d u d  d d  d u d d u d d u d  (slide down upon repeat) 
 d|--0-0--0-0-0--0-0--0-0-0--0-0--0-0-0-0-0-0-0-0-0-|
A#|--0-0--0-0-0--0-0--0-0-0--0-0--0-0-0-0-0-0-0-0-0-|
 F|--0-0--0-0-0--0-0--0-0-0--0-0--0-0-0-0-0-0-0-0-0-|
 D|--0-0--0-0-0--0-0--0-0-0--0-0--0-0-0-0-0-0-0-0-0-|
 A|--1-1--1-1-1--1-1--1-1-1--1-1--1-1-5-5-5-6-6-6-6-|
 E|--3-3--3-3-3--3-3--3-3-3--3-3--3-3-6-6-6-8-8-8-8-|

Verse 1: 
    d d  d u d  d d  d u d  d d  d u d d u d d u d  (slide down upon repeat) 
 d|--0-0--0-0-0--0-0--0-0-0--0-0--0-0-0-0-0-0-0-0-0-|
A#|--0-0--0-0-0--0-0--0-0-0--0-0--0-0-0-0-0-0-0-0-0-|
 F|--0-0--0-0-0--0-0--0-0-0--0-0--0-0-0-0-0-0-0-0-0-|
 D|--0-0--0-0-0--0-0--0-0-0--0-0--0-0-0-0-0-0-0-0-0-|
 A|--1-1--1-1-1--1-1--1-1-1--1-1--1-1-5-5-5-6-6-6-6-|
 E|--3-3--3-3-3--3-3--3-3-3--3-3--3-3-6-6-6-8-8-8-8-| 4x

Verse 2: 
    d d  d u d  d d  d u d  d d  d u d d u d d u d 
 d|--0-0--0-0-0--0-0--0-0-0--0-0--0-0-0-0-0-0-0-0-0-|
 A#|-0-0--0-0-0--0-0--0-0-0--0-0--0-0-0-0-0-0-0-0-0-|
 F|--0-0--0-0-0--0-0--0-0-0--0-0--0-0-0-0-0-0-0-0-0-|
 D|--0-0--0-0-0--0-0--0-0-0--0-0--0-0-0-0-0-0-0-0-0-|
 A|--1-1--1-1-1--1-1--1-1-1--1-1--1-1-5-5-5-6-6-6-6-|
 E|--3-3--3-3-3--3-3--3-3-3--3-3--3-3-6-6-6-8-8-8-8-| 4x

Bridge:
 d|--0--0-0--0--0-0-0--0-0-|
A#|--0--0-0--0--0-0-0--0-0-|
 F|--0--0-0--0--0-0-0--0-0-|
 D|--0--0-0--0--0-0-0--0-0-|
 A|--5--1-1--1--6-6-6--3-3-|
 E|--6--3-3--3--8-8-8--5-5-| 3x

 d|--0--0-0--0-0-------------|
A#|-0--0-0--0-0-------------|
 F|--0--0-0--0-0-------------|
 D|--0--0-0--0-0-------------|
 A|--5--1-1--1-1-------------|
 E|--6--3-3--3-3--10-8-6-8-6-| 

Chorus:
A#                          Amin
When I see you mad, I see a lion

Gmin                        Amin
When I see you mad, I see a lion

A#                                           Amin
You're the apple of my eye, of my eye, of my eye

Gmin                                         Amin
You're the apple of my eye, of my eye, won't ya

Bridge:
(You can pick it the strings the way you want to, this is one way to do it)
 d|-------------------------------------------|
A#|-------------------------------------------|
 F|---0---------0------0----------------------|
 D|-----1---1-----1---1------0-----0---0----0-|
 A|-------0---------0----------5---------5----|
 E|-3---------3------------6-----5---6-----5--| 2x


Verse 3:
    d d  d u d  d d  d u d  d d  d u d d u d d u d 
 d|--0-0--0-0-0--0-0--0-0-0--0-0--0-0-0-0-0-0-0-0-0-|
 A#|-0-0--0-0-0--0-0--0-0-0--0-0--0-0-0-0-0-0-0-0-0-|
 F|--0-0--0-0-0--0-0--0-0-0--0-0--0-0-0-0-0-0-0-0-0-|
 D|--0-0--0-0-0--0-0--0-0-0--0-0--0-0-0-0-0-0-0-0-0-|
 A|--1-1--1-1-1--1-1--1-1-1--1-1--1-1-5-5-5-6-6-6-6-|
 E|--3-3--3-3-3--3-3--3-3-3--3-3--3-3-6-6-6-8-8-8-8-| 4x

Bridge:
 d|--0--0-0--0--0-0-0--0-0-|
A#|--0--0-0--0--0-0-0--0-0-|
 F|--0--0-0--0--0-0-0--0-0-|
 D|--0--0-0--0--0-0-0--0-0-|
 A|--1--5-5--5--3-3-3--6-6-|
 E|--3--6-6--6--5-5-5--8-8-| 3x

 d|--0--0-0--0-0-------------|
A#|--0--0-0--0-0-------------|
 F|--0--0-0--0-0-------------|
 D|--0--0-0--0-0-------------|
 A|--1--5-5--3-3-------------|
 E|--3--6-6--5-5--10-8-6-8-6-| 

Chorus:
A#                          Amin
When I see you mad, I see a lion

Gmin                        Amin
When I see you mad, I see a lion

A#                                            Amin
You're the apple of my eye, of my eye, of my eye

Gmin                                         Amin
You're the apple of my eye, of my eye, won't ya

A#                                            Amin
Give up my money, give up my name, take it away

Gmin                                        Amin
Give it away, I'll give it away, I'll give it

A#                          Amin
When I see you mad, I see a lion

Gmin                        Amin            
When I see you mad, I see a lion

Bridge: 

Gmin A# C A# A 

Outro:
A# Amin Gmin Amin (play once without singing)

A#                          Amin
When I see you mad, I see a lion

Gmin                        Amin
When I see you mad, I see a lion

A#                                           Amin
You're the apple of my eye, of my eye, of my eye

Gmin                                         Amin
You're the apple of my eye, of my eye, won't ya

A#                                         Amin
Give up my money, give up my name, take it away

Gmin                                       Amin
I'll give it away, give it away, I'll give it   (stopped singing here)            
Submit corrections

↑ Back to top | Tablatures and chords for acoustic guitar and electric guitar, ukulele, drums are parodies/interpretations of the original songs. You may use it for private study, scholarship, research or language learning purposes only