Home » F » Foals »

Foals - What Went Down Tabs

Artists:  A B C D E F G H I J K L M N O P Q R S T U V W X Y Z # 

What Went Down Tabs

(ver. 5) Click to play this song!
Foals
[Intro]
[Yannis and Jimmy]
I buried my heart in a hole in the ground
With the lights and the roses and the cowards down-town
They threw me a party there was no one around
They tried to call my girl but she could not be found

e|---------------------------------------------------------------------------|
B|---------------------------------------------------------------------------|
G|---------------------------------------------------------------------------|
D|---------------------------------------------------------------------------|
A|-1--3----------------------------------------------------------------------|
D|-------5---(x4)------------------------------------------------------------|

e|---------------------------------------------------------------------------|
B|---------------------------------------------------------------------------|
G|---------------------------------------------------------------------------|
D|---------------------------------------------------------------------------|
A|---------------------------------------------------------------------------|
D|--5-----(Palm-muted, listen to song to get the timing right)---------------|

[Verse 1]
[Yannis and Jimmy]
I buried my guilt in a pit in the sound
With the rust and the vultures and the trash down-town
So don't step to me, kid you'll never be found
'Cos while you were sleeping I took over your town

e|---------------------------------------------------------------------------|
B|---------------------------------------------------------------------------|
G|---------------------------------------------------------------------------|
D|---------------------------------------------------------------------------|
A|--1---3--------------------------------------------------------------------|
D|---------5----(x4)---5-5-5-5-5-5-5-5-5-5-5-5-5-5-5-5-5-5-5-5-5-5-5-5-5-5-5|

[Pre-Chorus]
[Yannis and Jimmy]
e|---------------------------------------------------------------------------|
B|---------------------------------------------------------------------------|
G|---------------------------------------------------------------------------|
D|---------------------------------------------------------------------------|
A|---------------------------------------------------------------------------|
D|-8-8-8-8-5-7-7-7-7-5-5-5-5-5-5----8-8-8-8-5-7-7-7-7-5-5-5-5-5-5------------|

e|---------------------------------------------------------------------------|
B|---------------------------------------------------------------------------|
G|---------------------------------------------------------------------------|
D|---------------------------------------------------------------------------|
A|---------------------------------------------------------------------------|
D|-8-8-8-8-5-7-7-7-7-5-5-5-5-5-5----8-8-8-8-5-7-7-7-7-5-12-12-12-12----------|

[Chorus]
[Jimmy]
When I see a man I see a lion
When I see a man I see a lion
You're the apple of my eye of my eye of my eye
You're the apple of my eye of my I want 'ya

e|---------------------------------------------------------------------------|
B|---------------------------------------------------------------------------|
G|---------------------------------------------------------------------------|
D|-8-8-8-8-5-7-7-7-7-5-5-5-5-5-5----8-8-8-8-5-7-7-7-7-5-5-5-5-5-5------------|
A|-8-8-8-8-5-7-7-7-7-5-5-5-5-5-5----8-8-8-8-5-7-7-7-7-5-5-5-5-5-5------------|
D|-8-8-8-8-5-7-7-7-7-5-5-5-5-5-5----8-8-8-8-5-7-7-7-7-5-5-5-5-5-5------------|

e|---------------------------------------------------------------------------|
B|---------------------------------------------------------------------------|
G|---------------------------------------------------------------------------|
D|-8-8-8-8-5-7-7-7-7-5-5-5-5-5-5----8-8-8-8-5-7-7-7-7-5-12-12-12-12----------|
A|-8-8-8-8-5-7-7-7-7-5-5-5-5-5-5----8-8-8-8-5-7-7-7-7-5-12-12-12-12----------|
D|-8-8-8-8-5-7-7-7-7-5-5-5-5-5-5----8-8-8-8-5-7-7-7-7-5-12-12-12-12----------|

[Chorus]
[Yannis]
e|---------------------------------------------------------------------------|
B|---------------------------------------------------------------------------|
G|--12(b)12(r)12(b)12(r)12(b)12(r)12(b)12(r)12(b)12(r)12(b)12(r)12(b)12(r)---|
D|---------------------------------------------------------------------------|
A|---------------------------------------------------------------------------|
D|---------------------------------------------------------------------------|

[Verse 2]
[Yannis and Jimmy]

I fell for a girl with a port-wine stain
I knew her initials but never her name
I tried and I tried and I was never the same
So no long for love and I'm forever changed
e|---------------------------------------------------------------------------|
B|---------------------------------------------------------------------------|
G|---------------------------------------------------------------------------|
D|---------------------------------------------------------------------------|
A|-1--3----------------------------------------------------------------------|
D|-------5---(x4)---5-5-5-5-5-5-5-5-5-5-5-5-5-5-5-5-5-5-5-5-5-5-5-5-5-5-5----|


[Repeat Pre-Chorus]
[Yannis and Jimmy]
e|---------------------------------------------------------------------------|
B|---------------------------------------------------------------------------|
G|---------------------------------------------------------------------------|
D|---------------------------------------------------------------------------|
A|---------------------------------------------------------------------------|
D|-8-8-8-8-5-7-7-7-7-5-5-5-5-5-5----8-8-8-8-5-7-7-7-7-5-5-5-5-5-5------------|

e|---------------------------------------------------------------------------|
B|---------------------------------------------------------------------------|
G|---------------------------------------------------------------------------|
D|---------------------------------------------------------------------------|
A|---------------------------------------------------------------------------|
D|-8-8-8-8-5-7-7-7-7-5-5-5-5-5-5----8-8-8-8-5-7-7-7-7-5-12-12-12-12----------|

[ Repeat Chorus]
[Jimmy]
e|---------------------------------------------------------------------------|
B|---------------------------------------------------------------------------|
G|---------------------------------------------------------------------------|
D|-8-8-8-8-5-7-7-7-7-5-5-5-5-5-5----8-8-8-8-5-7-7-7-7-5-5-5-5-5-5------------|
A|-8-8-8-8-5-7-7-7-7-5-5-5-5-5-5----8-8-8-8-5-7-7-7-7-5-5-5-5-5-5------------|
D|-8-8-8-8-5-7-7-7-7-5-5-5-5-5-5----8-8-8-8-5-7-7-7-7-5-5-5-5-5-5------------|

e|---------------------------------------------------------------------------|
B|---------------------------------------------------------------------------|
G|---------------------------------------------------------------------------|
D|-8-8-8-8-5-7-7-7-7-5-5-5-5-5-5----8-8-8-8-5-7-7-7-7-5-12-12-12-12----------|
A|-8-8-8-8-5-7-7-7-7-5-5-5-5-5-5----8-8-8-8-5-7-7-7-7-5-12-12-12-12----------|
D|-8-8-8-8-5-7-7-7-7-5-5-5-5-5-5----8-8-8-8-5-7-7-7-7-5-12-12-12-12----------|

[Repeat chorus]
[Yannis]
e|---------------------------------------------------------------------------|
B|---------------------------------------------------------------------------|
G|--12(b)12(r)12(b)12(r)12(b)12(r)12(b)12(r)12(b)12(r)12(b)12(r)12(b)12(r)---|
D|---------------------------------------------------------------------------|
A|---------------------------------------------------------------------------|
D|---------------------------------------------------------------------------|

[Brigde]
[Yannis]  2:53 to 3:40
e|---------------------------------------------------------------------------------|
B|---------------------------------------------------------------------------------|
G|-12(x12)---14(x6)---12(x6)---10(x6)---12(x6)---14(x6)---12(x6)---10(x6)---12(x6)-|
D|---------------------------------------------------------------------------------|
A|---------------------------------------------------------------------------------|
D|---------------------------------------------------------------------------------|

[FINAL CHORUS]
[Jimmy]

When I see a man I see a lion
When I see a man I see a lion
You're the apple of my eye of my eye of my eye
You're the apple of my eye of my I want 'ya
I give up my money give up my name take it away
I give it away I give it away I give it
I'm a sycophantic animal, I'm a sycophant fool, I'm a sycophantic fool I know,
Break up the chain, I'm breaking up the chain I'm breaking
Give it away, give it away, I give it
When I see a man I see a lion
When I see a man I see a lion
You're the apple of my eye of my eye of my eye
You're the apple of my eye of my I want 'ya
Give up my money, give up my name, take it away
I give it away I give it away I give it
See you again I see you again I see ya
Give it away, I give it away, I give it
When I fell low, When I fell low, I fell it
When I see a man I see a lion
When I see a man I see a lion
You're the apple of my eye of my eye of my eye
You're the apple of my eye of my I want 'ya

e|---------------------------------------------------------------------------|
B|---------------------------------------------------------------------------|
G|---------------------------------------------------------------------------|
D|---------------------------------------------------------------------------|
A|---------------------------------------------------------------------------|
D|-8-8-8-8-5-7-7-7-7-5-5-5-5-5-5----8-8-8-8-5-7-7-7-7-5-5-5-5-5-5------------|

e|---------------------------------------------------------------------------|
B|---------------------------------------------------------------------------|
G|---------------------------------------------------------------------------|
D|---------------------------------------------------------------------------|
A|---------------------------------------------------------------------------|
D|-8-8-8-8-5-7-7-7-7-5-5-5-5-5-5----8-8-8-8-5-7-7-7-7-5-12-12-12-12----------|

e|---------------------------------------------------------------------------|
B|---------------------------------------------------------------------------|
G|---------------------------------------------------------------------------|
D|-8-8-8-8-5-7-7-7-7-5-5-5-5-5-5----8-8-8-8-5-7-7-7-7-5-5-5-5-5-5------------|
A|-8-8-8-8-5-7-7-7-7-5-5-5-5-5-5----8-8-8-8-5-7-7-7-7-5-5-5-5-5-5------------|
D|-8-8-8-8-5-7-7-7-7-5-5-5-5-5-5----8-8-8-8-5-7-7-7-7-5-5-5-5-5-5------------|

e|---------------------------------------------------------------------------|
B|---------------------------------------------------------------------------|
G|---------------------------------------------------------------------------|
D|-8-8-8-8-5-7-7-7-7-5-5-5-5-5-5----8-8-8-8-5-7-7-7-7-5-12-12-12-12----------|
A|-8-8-8-8-5-7-7-7-7-5-5-5-5-5-5----8-8-8-8-5-7-7-7-7-5-12-12-12-12----------|
D|-8-8-8-8-5-7-7-7-7-5-5-5-5-5-5----8-8-8-8-5-7-7-7-7-5-12-12-12-12----------|
            
Submit corrections

↑ Back to top | Tablatures and chords for acoustic guitar and electric guitar, ukulele, drums are parodies/interpretations of the original songs. You may use it for private study, scholarship, research or language learning purposes only