» » »

Ed Sheeran - Thinking Out Loud Bass

Artists:  A B C D E F G H I J K L M N O P Q R S T U V W X Y Z # 

Thinking Out Loud Bass

(ver. 3) Click to play this song!
Ed Sheeran
 Rating:
2.8/5 (23 votes)

 Thinking Out Loud lessons Tabs too difficult? Try these video lessons and learn fast
 
                Tuning: EADG

Intro: No bass (~00:26)

Verse (And darling I will be loving you...)
G|----------------------------|
D|----------------------------|
A|-----5---9\----------4---5--|
E|--------------3---5---------|

Pre-Chorus (People fall in love...)
G|---------------------------------------------------------------------|
D|---------------------------------------------------------------------|
A|-------------------------5--5-5/7-----------------------------4-5-7--|
E|-----0---0--0-2-3---5---------------------0---0--0-2-3---5-----------|

(Well me I fall in love with you...)
G|---------------------------------------------------------------------------|
D|------------------------------------------------------------------------7--|
A|----------------------------5--------------------------------------5/7-----|
E|-----0---0--0-2-3---5----7---7------------0---0--0-2-3----5--5--5----------|

Chorus (So honey now...)
G|----------------------------|
D|----------------------------|
A|-----5---9\----------4---5--|
E|--------------3---5---------|

(Maybe we found love right...)
G|-------------------------------------|
D|-----/9--/7--/5--/4------------------|
A|----------------------------5--------|
E|--------------------0----5-------12/-|

Verse 2 (When my hair's all but gone...)
G|----------------------------|
D|----------------------------|
A|-----5---9\----------4---5--|
E|--------------3---5---------|

Pre-Chorus (People fall in love...)
G|---------------------------------------------------------------------|
D|---------------------------------------------------------------------|
A|-------------------------5--5-5/7-----------------------------4-5-7--|
E|-----0---0--0-2-3---5---------------------0---0--0-2-3---5-----------|

(I'll just keep on making the same...)
G|---------------------------------------------------------------------------|
D|------------------------------------------------------------------------7--|
A|----------------------------5--------------------------------------5/7-----|
E|-----0---0--0-2-3---5----7---7------------0---0--0-2-3----5--5--5----------|

Chorus (But baby now...)
G|----------------------------|
D|----------------------------|
A|-----5---9\----------4---5--|
E|--------------3---5---------|

(And maybe we found love right...)
G|-------------------------------------|
D|-----/9--/7--/5--/4------------------|
A|----------------------------5--------|
E|--------------------0----5-------12/-|

Instrumental                               (La la la...)
G|-----------------------------------------------------------|
D|-----------------------------------------------------------|
A|-----5---9\----------4---5----------5---9-------4-5-7-4----|
E|--------------3---5-----------------------3---5------------|

Instrumental                           
G|----------------------------------------------------------------|
D|-----------------------------------------------------------7----|
A|-----5---9\---------------4-5-------5---9-----------------------|
E|--------------3---5-----5-----------------3--3--3--5--5--5---5--|

Chorus (So baby now...)
G|----------------------------|
D|----------------------------|
A|-----5---9\----------4---5--|
E|--------------3---5---------|

(That baby we found love right...) 
G|-------------------------------------|
D|-----/9--/7--/5--/4------------------|
A|----------------------------5--------|
E|--------------------0----5-----------|            
Submit corrections


        Thinking Out Loud lessons Hard to play? Try these video lessons and learn fast Thinking Out Loud lessons
        
↑ Back to top | Tablatures and chords for acoustic guitar and electric guitar, ukulele, drums are parodies/interpretations of the original songs. You may use it for private study, scholarship, research or language learning purposes only