Home » E » Ed Sheeran »

Ed Sheeran - Thinking Out Loud Tabs

Artists:  A B C D E F G H I J K L M N O P Q R S T U V W X Y Z # 

Thinking Out Loud Tabs

(ver. 3) Click to play this song!
Ed Sheeran
[Verse] 

e|---------------------------------------------|-------------------------------------------------------------|
B|---------------------------------------------|-------------------------------------------------------------|
G|-0---------------0---0h2---0-----------------|-------------------------------------------------------------|
D|-2---2-------2-----------------2---2---0-----|-0---2-------0---------------------/7\-----------------------|
A|-3-----------------------------------------3-|---------0----------------------0----------------------------|
E|---------x-------------0-----------x---------|-1-----------x---3-------------------------------------------|

e|---------------------------------------------|-------------------------------------------------------------|
B|---------------------------------------------|-------------------------------------------------------------|
G|-0-------0-------0---0h2---0-----------------|----------0--------------------------------------------------|
D|-2---2-------2-----------------2---2---0-----|----------0-----------------------/7\------------------------|
A|-3-----------------------------------------3-|-3----------------------------0------------------------------|
E|---------x-------------0-----------x---------|-1----1---x---3----------------------------------------------|

e|---------------------------------------------|-------------------------------------------------------------|
B|---------------------------------------------|-------------------------------------------------------------|
G|-0---------------0---0h2---0-----------------|-------------------------------------------------------------|
D|-2---2-------2-----------------2---2---0-----|-0---2-------0---------------------/7\-----------------------|
A|-3-----------------------------------------3-|---------0----------------------0----------------------------|
E|---------x-------------0-----------x---------|-1-----------x---3-------------------------------------------|

e|---------------------------------------------|------------------------------------0------------------------|
B|---------------------------------------------|------------------------------1h3----------------------------|
G|-0-------0-------0---0h2---0-----------------|-------------------------------------------------------------|
D|-2---2-------2-----------------2---2---0-----|-0-----------------------------------------------------------|
A|-3-----------------------------------------3-|-----3---3---------------0-----------------------------------|
E|---------x-------------0-----------x---------|-1-----------x---3-------------------------------------------|
   o           o             o             o           o          o         
e|---------------------------------------|------------------------1p0----------------------------------------|
B|---------------------------------5-----|-------------3------3---0-----3p1----------------------------------|
G|-5-------------------------5/7-------5-|-----5-------0----------0------------------------------------------|
D|-----5---5---5---------5---------------|-3-----------0-----------------------------------------------------|
A|-3-------------------------------------|-------------------------------------------------------------------|
E|---------x---0-------------x-----------|---------x---3----------x------------------------------------------|
   o           o                  o                                                                 
e|---------0--------------------|-------------------------------0|-------------------------------------------|
B|-1---3---3--------------1-----|-------------------------1h3----|-------------------------------5-----------|
G|-0-------0--------------0-----|-----2-------0-------0---0------|-5-----------------------5/7-------5-------|
D|---------2--------------2-----|-----3-------0-----------0------|------5---5---5------5---------------------|
A|-3----------------------------|--------------------------------|-3-----------------------------------------|
E|---------x---0----------x---0-|-1-------x---3-----------x------|----------x---0----------x-----------------|
   o           o             o             o           o          o            o              o
e|---------------------------------------|------------------------1p0--------|----0--------------------------|
B|---------------------------------5-----|-------------3------3---0-----3p1--|-------3--1--3-----1-----------|
G|-5-------------------------5/7-------5-|-----5-------0----------0----------|-------0--------------2p0--0-0-|
D|-----5---5---5---------5---------------|-3-----------0---------------------|-------0-------------------0-0-|
A|-3-------------------------------------|-----------------------------------|-------------------------------|
E|---------x---0-------------x-----------|---------x---3----------x----------|-1-----x--------3----------x---|

[Prechorus]
   o           o                   o           o   o   o       o           o                    
e|-0---1---0---1---0-------------|---------0---0-------0-----|-0---1---0-------------------------------------|
B|---------3-----------3---1---3-|-----1-------1-------1-----|---------3---3---1-----------/3----------------|
G|---------2---------------2-----|-------------2-------2-----|---------2-----------2---0---------------------|
D|-0-----------0-----------0-----|---------------------------|-0-----------0-----------0---------------------|
A|-------------------------------|-------------0-----------0-|-----------------------------------------------|
E|---------x---------------x-----|-3-------x-----------x-----|---------x---------------x---------------------|
   o           o                 o           o           o       o           o          o
e|-----------------------------|-0---1---0---1---0-------------|-------------0-------------------------------|
B|-----------------------------|---------3-----------3---1---1-|-1---3---1-------3p1----1--------------------|
G|---------0-------------0-----|---------2---------------0-----|---------0--------------2---2----------------|
D|---------0-------------0-----|-0-----------0-----------0-----|---------0--------------2--------------------|
A|-----2-----------------------|-------------------------------|-------------0-------------------------------|
E|-3-------x---3-----3---x---0-|---------x---------------x-----|-3-------x--------------x--------------------|
   o           o                    o   o   o   o   o 
e|-0---1---0----------------------|---------------------------0-----------|
B|---------3---3---1-----------/3-|-3---3---3---3---3---1h3-------3p1-----|
G|---------2-----------2---0------|-0---0---0---0---0-------------------2-|
D|-0-----------0-----------0------|-0---0---0---0---0---------------------|
A|--------------------------------|-2---2---2---2---2---------------------|
E|---------x---------------x------|-3---3---3---3---3---------------------|

[Chorus]

e|-----0---0--------------------|-------------3---3---3---1---1---1---0-------|------------------------------|
B|-1-------1--------------1-----|---------------------0-----------0-------0h1-|----------1-------------1-----|
G|-0-------0--------------0-----|-----2---2-----------0-----------0-----------|----------0-------------0-----|
D|-2-------2--------------2-----|---------------------------------------------|------2---2-------------2-----|
A|-3----------------------------|---------------------------------------------|-3----------------------------|
E|---------x---0------0---x---0-|-1-------x-----------3-----------x-----------|----------3---0-----0---x---0-|

e|-------------3---3---3---1---1---1---0---0-|-0--------0h3------------------|----------3--3--3--1--1--1--0--|
B|---------------------0-----------0---------|-1----------1---0h1------1-----|----------------0--------0-----|
G|---------2-----------0-----------0---------|-0----------0-----0------0-----|----2--2--------0--------0-----|
D|-----3-------------------------------------|------2---------0h2------2-----|-------3-----------------------|
A|-------------------------------------------|-3-----------------------------|-------------------------------|
E|-1-------x-----------3-----------x---------|------------x-----0------x---0-|-1-----x--------3--------x-----|
                                                                                                       o
e|------------------------------------0-|--------------------------|------------------|----------------------|
B|-0h1-----------1----------1---1h3-----|-----3p1---3----------1h3-|-5----3----1------|----------------------|
G|---------------0--------------0-------|-------0---0----------0---|-5----4----2----0-|-5----4---5-----5-----|
D|-----------2---2--------------2-------|-------0---0------0---0---|-7----5----3----2-|-7----5---5-----5---0-|
A|-------3------------------------------|--------------------------|------------------|-5--------3-----------|
E|---------------x---0----------x-------|-1-----x---3----------x---|-5----3----1----0-|------3---------x-----|

[Verse] 

e|---------------------------------------------|-------------------------------------------------------------|
B|---------------------------------------------|-------------------------------------------------------------|
G|-0---------------0---0h2---0-----------------|-------------------------------------------------------------|
D|-2---2-------2-----------------2---2---0-----|-0---2-------0---------------------/7\-----------------------|
A|-3-----------------------------------------3-|---------0----------------------0----------------------------|
E|---------x-------------0-----------x---------|-1-----------x---3-------------------------------------------|

e|---------------------------------------------|-------------------------------------------------------------|
B|---------------------------------------------|-------------------------------------------------------------|
G|-0-------0-------0---0h2---0-----------------|----------0--------------------------------------------------|
D|-2---2-------2-----------------2---2---0-----|----------0-----------------------/7\------------------------|
A|-3-----------------------------------------3-|-3----------------------------0------------------------------|
E|---------x-------------0-----------x---------|-1----1---x---3----------------------------------------------|

e|---------------------------------------------|-------------------------------------------------------------|
B|---------------------------------------------|-------------------------------------------------------------|
G|-0---------------0---0h2---0-----------------|-------------------------------------------------------------|
D|-2---2-------2-----------------2---2---0-----|-0---2-------0---------------------/7\-----------------------|
A|-3-----------------------------------------3-|---------0----------------------0----------------------------|
E|---------x-------------0-----------x---------|-1-----------x---3-------------------------------------------|

e|---------------------------------------------|------------------------------------0------------------------|
B|---------------------------------------------|------------------------------1h3----------------------------|
G|-0-------0-------0---0h2---0-----------------|-------------------------------------------------------------|
D|-2---2-------2-----------------2---2---0-----|-0-----------------------------------------------------------|
A|-3-----------------------------------------3-|-----3---3---------------0-----------------------------------|
E|---------x-------------0-----------x---------|-1-----------x---3-------------------------------------------|
   o           o             o             o           o          o            
e|---------------------------------------|------------------------1p0---------------------------------------|
B|---------------------------------5-----|-------------3------3---0-----3p1---------------------------------|
G|-5-------------------------5/7-------5-|-----5-------0----------0-----------------------------------------|
D|-----5---5---5---------5---------------|-3-----------0----------------------------------------------------|
A|-3-------------------------------------|------------------------------------------------------------------|
E|---------x---0-------------x-----------|---------x---3----------x-----------------------------------------|
   o           o                  o           o                                                           
e|---------0--------------------|-------------------------------0|------------------------------------------|
B|-1---3---3--------------1-----|-------------------------1h3----|-------------------------------5----------|
G|-0-------0--------------0-----|-----2-------0-------0---0------|-5-----------------------5/7-------5------|
D|---------2--------------2-----|-----3-------0-----------0------|------5---5---5------5--------------------|
A|-3----------------------------|--------------------------------|-3----------------------------------------|
E|---------x---0----------x---0-|-1-------x---3-----------x------|----------x---0----------x----------------|
   o           o             o             o           o          o            o              o 
e|---------------------------------------|------------------------1p0--------|----0-------------------------|
B|---------------------------------5-----|-------------3------3---0-----3p1--|-------3--1--3-----1----------|
G|-5-------------------------5/7-------5-|-----5-------0----------0----------|-------0--------------2p0--0-0|
D|-----5---5---5---------5---------------|-3-----------0---------------------|-------0-------------------0-0|
A|-3-------------------------------------|-----------------------------------|------------------------------|
E|---------x---0-------------x-----------|---------x---3----------x----------|-1-----x--------3----------x--|

[Prechorus]
   o           o                   o           o   o   o       o           o                    
e|-0---1---0---1---0-------------|---------0---0-------0-----|-0---1---0------------------------------------|
B|---------3-----------3---1---3-|-----1-------1-------1-----|---------3---3---1-----------/3---------------|
G|---------2---------------2-----|-------------2-------2-----|---------2-----------2---0--------------------|
D|-0-----------0-----------0-----|---------------------------|-0-----------0-----------0--------------------|
A|-------------------------------|-------------0-----------0-|----------------------------------------------|
E|---------x---------------x-----|-3-------x-----------x-----|---------x---------------x--------------------|
   o           o                 o           o           o       o           o          o
e|-----------------------------|-0---1---0---1---0-------------|-------------0------------------------------|
B|-----------------------------|---------3-----------3---1---1-|-1---3---1-------3p1----1-------------------|
G|---------0-------------0-----|---------2---------------0-----|---------0--------------2---2---------------|
D|---------0-------------0-----|-0-----------0-----------0-----|---------0--------------2-------------------|
A|-----2-----------------------|-------------------------------|-------------0------------------------------|
E|-3-------x---3-----3---x---0-|---------x---------------x-----|-3-------x--------------x-------------------|
   o           o                    o   o   o   o   o 
e|-0---1---0----------------------|---------------------------0-----------|
B|---------3---3---1-----------/3-|-3---3---3---3---3---1h3-------3p1-----|
G|---------2-----------2---0------|-0---0---0---0---0-------------------2-|
D|-0-----------0-----------0------|-0---0---0---0---0---------------------|
A|--------------------------------|-2---2---2---2---2---------------------|
E|---------x---------------x------|-3---3---3---3---3---------------------|

[Chorus]

e|-----0---0--------------------|-------------3---3---3---1---1---1---0-------|-----------------------------|
B|-1-------1--------------1-----|---------------------0-----------0-------0h1-|----------1-------------1----|
G|-0-------0--------------0-----|-----2---2-----------0-----------0-----------|----------0-------------0----|
D|-2-------2--------------2-----|---------------------------------------------|------2---2-------------2----|
A|-3----------------------------|---------------------------------------------|-3---------------------------|
E|---------x---0------0---x---0-|-1-------x-----------3-----------x-----------|----------3---0-----0---x---0|

e|-------------3---3---3---1---1---1---0---0-|-0--------0h3------------------|----------3--3--3--1--1--1--0-|
B|---------------------0-----------0---------|-1----------1---0h1------1-----|----------------0--------0----|
G|---------2-----------0-----------0---------|-0----------0-----0------0-----|----2--2--------0--------0----|
D|-----3-------------------------------------|------2---------0h2------2-----|-------3----------------------|
A|-------------------------------------------|-3-----------------------------|------------------------------|
E|-1-------x-----------3-----------x---------|------------x-----0------x---0-|-1-----x--------3--------x----|
                                                                                                       o
e|------------------------------------0-|--------------------------|------------------|---------------------|
B|-0h1-----------1----------1---1h3-----|-----3p1---3----------1h3-|-5----3----1------|---------------------|
G|---------------0--------------0-------|-------0---0----------0---|-5----4----2----0-|-5----4---5-----5----|
D|-----------2---2--------------2-------|-------0---0------0---0---|-7----5----3----2-|-7----5---5-----5---0|
A|-------3------------------------------|--------------------------|------------------|-5--------3----------|
E|---------------x---0----------x-------|-1-----x---3----------x---|-5----3----1----0-|------3---------x----|

[Solo]
             o                     o                   o               o           
e|---------------------------------------|------------------------------------------------------------------|
B|-5----3----7---1---1h3p1---------1-----|-------------0---------------0-----1h3----------------------------|
G|-5---------5---------------------0-----|-0h2---0h2---2---0-------0---0h2----------------------------------|
D|---------------------------------2-----|-----------------0------------------------------------------------|
A|-3-------------------------------------|------------------------------------------------------------------|
E|-----------x-------0---------0---x---0-|---1-----1---x---3---3-------x------------------------------------|
                                o                                                         o
e|-----3------------------------------|-5---5-----3---------/12-|-8---/12-----------------------------------|
B|-5-------3---1---1h3p1--------1-----|-0---0-----0-------------|-----------0-------------------------------|
G|-5-------0--------------------0-----|-0---0-----0-----0-------|-----------0-------------0-----------------|
D|------------------------------2-----|-------------------------|-------------------------2-----------------|
A|-3----------------------------------|-------------------------|-------------------------------------------|
E|---------x-------0--------0---x---0-|-1---1-----3-------------|-8---------x---0-----0---x---0-------------|

e|-/8----8---------3-----3-------0-------|------0---0-------------------------------------------------------|
B|-/10---10---0----0---------0-------3p0-|-1--------1-------------------/13---13----------------------------|
G|------------0--------------0-----------|-0--------0-------------------------------------------------------|
D|---------------------------------------|------------------------------------------------------------------|
A|---------------------------------------|-3----------------------------------------------------------------|
E|--0---------x----3---------x-----------|----------x---0---0---0---x---------------------------------------|

e|--------------------------------------------------0-----|
B|-13---12---12---12---10---10---10---8---8---1h3---------|
G|-12-------------12-------------10---------------------0-|
D|--------------------------------------------------------|
A|--------------------------------------------------------|
E|--------------------------------------------------------|

[Chorus]

e|-----0---0--------------------|-------------3---3---3---1---1---1---0-------|-----------------------------|
B|-1-------1--------------1-----|---------------------0-----------0-------0h1-|----------1-------------1----|
G|-0-------0--------------0-----|-----2---2-----------0-----------0-----------|----------0-------------0----|
D|-2-------2--------------2-----|---------------------------------------------|------2---2-------------2----|
A|-3----------------------------|---------------------------------------------|-3---------------------------|
E|---------x---0------0---x---0-|-1-------x-----------3-----------x-----------|----------3---0-----0---x---0|

e|-------------3---3---3---1---1---1---0---0-|-0--------0h3------------------|----------3--3--3--1--1--1--0-|
B|---------------------0-----------0---------|-1----------1---0h1------1-----|----------------0--------0----|
G|---------2-----------0-----------0---------|-0----------0-----0------0-----|----2--2--------0--------0----|
D|-----3-------------------------------------|------2---------0h2------2-----|-------3----------------------|
A|-------------------------------------------|-3-----------------------------|------------------------------|
E|-1-------x-----------3-----------x---------|------------x-----0------x---0-|-1-----x--------3--------x----|
                                                                                                       o
e|------------------------------------0-|--------------------------|------------------|---------------------|
B|-0h1-----------1----------1---1h3-----|-----3p1---3----------1h3-|-5----3----1------|---------------------|
G|---------------0--------------0-------|-------0---0----------0---|-5----4----2----0-|-5----4---5-----5----|
D|-----------2---2--------------2-------|-------0---0------0---0---|-7----5----3----2-|-7----5---5-----5---0|
A|-------3------------------------------|--------------------------|------------------|-5--------3----------|
E|---------------x---0----------x-------|-1-----x---3----------x---|-5----3----1----0-|------3---------x----|

            
Submit corrections

↑ Back to top | Tablatures and chords for acoustic guitar and electric guitar, ukulele, drums are parodies/interpretations of the original songs. You may use it for private study, scholarship, research or language learning purposes only