» » »

Ed Sheeran - Thinking Out Loud Tabs

Artists:  A B C D E F G H I J K L M N O P Q R S T U V W X Y Z # 

Thinking Out Loud Tabs

(ver. 1) Click to play this song!
Ed Sheeran
 Rating:
4/5 (4 votes)

 Thinking Out Loud lessons Tabs too difficult? Try these video lessons and learn fast
 
                ED SHEERAN - Thinking Out Loud (Tab)


e||------------------------0-----------------------------||
B||----3---------3-------0------2------------------------||
G||----0h2-------2-------0------2----2h4-----------------||
D||----0---------------------------2-----2---------------||
A||-----------------------------0------------------------||
E||--------------2-------3-------------------------------||

When your legs don?t work like they used to before

e||------------------------0-----------------------------||
B||----3---------3-------0------2------------------------||
G||----0h2-------2-------0------2----2h4-----------------||
D||----0---------------------------2-----2---------------||
A||-----------------------------0------------------------||
E||--------------2-------3-------------------------------||

And I can?t sweep you off of your feet

e||------------------------0-----------------------------||
B||----3---------3-------0------2------------------------||
G||----0h2-------2-------0------2----2h4-----------------||
D||----0---------------------------2-----2---------------||
A||-----------------------------0------------------------||
E||--------------2-------3-------------------------------||

Will your mouth still remember the taste of my love

e||------------------------0-----------------------------||
B||----3---------3-------0------2------------------------||
G||----0h2-------2-------0------2------------------------||
D||----0-------------------------------------------------||
A||-----------------------------0------------------------||
E||--------------2-------3-------------------------------||

Will your eyes still smile from your cheeks

e||------0-----------------0-----------------------------||
B||----3---------3-------0------2------------------------||
G||----2---------2-------0------2------------------------||
D||----0-------------------------------------------------||
A||-----------------------------0------------------------||
E||--------------2-------3-------------------------------||  2x

And darling I will be loving you till we're 70

e||------0-----------------0-----------------------------||
B||----3---------3-------0------2------------------------||
G||----2---------2-------0------2------------------------||
D||----0-------------------------------------------------||
A||-----------------------------0------------------------||
E||--------------2-------3-------------------------------||  

And baby my heart could still fall as hard at 23 


e||------0-----------------0-----------------------------||
B||----3---------3-------0------2------------------------||
G||----2---------2-------0------2------------------------||
D||----0-------------------------------------------------||
A||-----------------------------0------------------------||
E||--------------2-------3-------------------------------||  

                          And I'm thinking bout how

e||------0----0----0--2------0----0----0-----------------||
B||----0----0----2----3----0----0----2----2--------------||
G||----0----0----2----2----0----0----2----2--------------||
D||----2----2----2----0----2----2----2----2--------------||
A||--------------0-------------------0----0--------------||
E||----0----0--------------0----0------------------------||  

People fall in love in mysterious ways, maybe just the touch of a hand

e||------0----0----0---------0----0----0-----------------||
B||----0----0----2----3----0----0----2----2--------------||
G||----0----0----2----4----0----0----2----2--------------||
D||----2----2----2----4----2----2----2----2--------------||
A||--------------0----2--------------0----0--------------||
E||----0----0--------------0----0------------------------||  

Well me I fall in love with you every single day, and I just wanna tell you I am

e||------0---------0-------0------------0-------0--------||
B||----3---------3-------0------2-----3-------3----------||
G||----2---------2-------0------2-----2-------2----------||
D||----0------------------------------0------------------||
A||-----------------------------0------------------------||
E||--------------2-------3--------------------2----------||  

So honey now, take me into your loving arms

e||------0------------0-------0--------------------------||
B||----0------2-----3-------3----------------------------||
G||----0------2-----2-------2----------------------------||
D||-----------------0------------------------------------||
A||-----------0------------------------------------------||
E||----3--------------------2----------------------------||  

Kiss me under the light of a thousand stars

e||------0------------0-------0-----0--------------------||
B||----0------2-----3-------3-----0----2-----------------||
G||----0------2-----2-------2-----0----2-----------------||
D||-----------------0------------------------------------||
A||-----------0------------------------0-----------------||
E||----3--------------------2-----3----------------------||  

Place your head on my beating heart, and I?m thinking out loud, that maybe

e||--------------3-----2------3----------2---------------||
B||-3-----2------3-----3------3-----2----3---------------||
G||-4-----2------0-----2------0-----2----2---------------||
D||-4-----2------------0------------2----0---------------||
A||-2-----0-------------------------0--------------------||
E||--------------3------------3--------------------------||  
 
    we   found   love   right   where   we   are


e||------------------------0-----------------------------||
B||----3---------3-------0------2------------------------||
G||----0h2-------2-------0------2----2h4-----------------||
D||----0---------------------------2-----2---------------||
A||-----------------------------0------------------------||
E||--------------2-------3-------------------------------||

And when my hair's overgrown and my memory fades

e||------------------------0-----------------------------||
B||----3---------3-------0------2------------------------||
G||----0h2-------2-------0------2----2h4-----------------||
D||----0---------------------------2-----2---------------||
A||-----------------------------0------------------------||
E||--------------2-------3-------------------------------||

And the crowds don't remember my name

e||------------------------0-----------------------------||
B||----3---------3-------0------2------------------------||
G||----0h2-------2-------0------2----2h4-----------------||
D||----0---------------------------2-----2---------------||
A||-----------------------------0------------------------||
E||--------------2-------3-------------------------------||

When my hands don't play the strings the same way

e||------------------------0-----------------------------||
B||----3---------3-------0------2------------------------||
G||----0h2-------2-------0------2------------------------||
D||----0-------------------------------------------------||
A||-----------------------------0------------------------||
E||--------------2-------3-------------------------------||

I know you will still love me the same

e||------0-----------------0-----------------------------||
B||----3---------3-------0------2------------------------||
G||----2---------2-------0------2------------------------||
D||----0-------------------------------------------------||
A||-----------------------------0------------------------||
E||--------------2-------3-------------------------------||  2x

Cause honey your soul could never grow old it's evergreen

e||------0-----------------0-----------------------------||
B||----3---------3-------0------2------------------------||
G||----2---------2-------0------2------------------------||
D||----0-------------------------------------------------||
A||-----------------------------0------------------------||
E||--------------2-------3-------------------------------||  

And baby your smile's forever in my mind and memory

e||------0-----------------0-----------------------------||
B||----3---------3-------0------2------------------------||
G||----2---------2-------0------2------------------------||
D||----0-------------------------------------------------||
A||-----------------------------0------------------------||
E||--------------2-------3-------------------------------||  

                          And I'm thinking bout how

e||------0----0----0--2------0----0----0-----------------||
B||----0----0----2----3----0----0----2----2--------------||
G||----0----0----2----2----0----0----2----2--------------||
D||----2----2----2----0----2----2----2----2--------------||
A||--------------0-------------------0----0--------------||
E||----0----0--------------0----0------------------------||  

People fall in love in mysterious ways, maybe it?s all part of a plan

e||------0----0----0---------0----0----0-----------------||
B||----0----0----2----3----0----0----2----2--------------||
G||----0----0----2----4----0----0----2----2--------------||
D||----2----2----2----4----2----2----2----2--------------||
A||--------------0----2--------------0----0--------------||
E||----0----0--------------0----0------------------------||  

Well I'll continue making the same mistakes, hoping that you'll understand

e||------0---------0-------0------------0-------0--------||
B||----3---------3-------0------2-----3-------3----------||
G||----2---------2-------0------2-----2-------2----------||
D||----0------------------------------0------------------||
A||-----------------------------0------------------------||
E||--------------2-------3--------------------2----------||  

That baby now, take me into your loving arms

e||------0------------0-------0--------------------------||
B||----0------2-----3-------3----------------------------||
G||----0------2-----2-------2----------------------------||
D||-----------------0------------------------------------||
A||-----------0------------------------------------------||
E||----3--------------------2----------------------------||  

Kiss me under the light of a thousand stars

e||------0------------0-------0-----0--------------------||
B||----0------2-----3-------3-----0----2-----------------||
G||----0------2-----2-------2-----0----2-----------------||
D||-----------------0------------------------------------||
A||-----------0------------------------0-----------------||
E||----3--------------------2-----3----------------------||  

Place your head on my beating heart, and I?m thinking out loud, that maybe

e||--------------3-----2------3----------2---------------||
B||-3-----2------3-----3------3-----2----3---------------||
G||-4-----2------0-----2------0-----2----2---------------||
D||-4-----2------------0------------2----0---------------||
A||-2-----0-------------------------0--------------------||
E||--------------3------------3--------------------------||  3x
 
    we   found   love   right   where   we   are            
Submit corrections


        Thinking Out Loud lessons Hard to play? Try these video lessons and learn fast Thinking Out Loud lessons
        
↑ Back to top | Tablatures and chords for acoustic guitar and electric guitar, ukulele, drums are parodies/interpretations of the original songs. You may use it for private study, scholarship, research or language learning purposes only